Sevendust - Angels Son Chords & Tabs

 

Angels Son Chords & Tabs

Sevendust Chords & Tabs

Version: 2 Type: Bass Tab 0 ratings
1 star 2 stars 3 stars 4 stars 5 stars
comments

Angels Son Bass Tab

   
Band: Sevendust
Song: Angels Son

Tabbed by: elibailey (elibailey19@hotmail.com)
Comments, Question, Welcome.

tuning: Standard (E-A-D-G)


Verse
G|--------------------------------|
D|--------------------------------|
A|-4-4----------------------------|
E|------1-1--2-2--1-1-------------|
[ Tab from: http://www.guitartabs.cc/tabs/s/sevendust/angels_son_btab_ver_2.html ]
Pre Chorus
G|--------------------------------|
D|--------------------------------|
A|-2--4---------------------------|
E|-------1--2---------------------|

Chorus
G|--------------------------------|
D|--------------------------------|
A|---------0-0--------------------|
E|-1-1-1-1------1-2--1-2----------|

Outro
G|--------------------------------|
D|--------------------------------|
A|-2--4--6-----0------------------|
E|----------1---------------------|
Comments