Seven Ways Out - Open The Door Replace Chords & Tabs

 

Open The Door Replace Chords & Tabs

Seven Ways Out Chords & Tabs

Version: 1 Type: Tab 0 ratings
1 star 2 stars 3 stars 4 stars 5 stars
comments

Open The Door Replace Tab

Guitar Tab 
Tuning: EADGBe
Song: Open The Door
Artist: Seven Ways Out
Album: Seven Ways Out


Intro


E|---------------------------------------------------------------------
B|---------------------------------------------------------------------
G|---------------------------------------------------------------------
D|---------------------------------------------------------------------
A|-----7-----9-----12-----11-----9-11-----7-----9-----12-----11-----9--
E|-0-0---0-0---0-0----0-0----0-0------7-7---7-7---7-7----7-7----7-7----

-----------------------------------------------------------------------
-----------------------------------------------------------------------
-----------------------------------------------------------------------
-----------------------------------------------------------------------
-----9-11-----7-----9-----12-----11-----9-11-----7-----9-----12-----11- 
-7-7------9-9---9-9---9-9----9-9----9-9------7-7---7-7---7-7----7-7----

----------|
----------|
----------|		Repeat Intro 2X
----------|
-----11-9-|
-7-7------|


Verse

[ Tab from: http://www.guitartabs.cc/tabs/s/seven_ways_out/open_the_door_replace_tab.html ]
e|--------------------------------------------------------------------
B|--------------------------------------------------------------------
G|--------------------------------------------------------------------
D|-2-2-2-2-2-2-2-2-2-2-2-2-2-2-2-2-9-9-9-9-9-9-9-9-9-9-9-9-9-9-9-9----
A|-2-2-2-2-2-2-2-2-2-2-2-2-2-2-2-2-9-9-9-9-9-9-9-9-9-9-9-9-9-9-9-9----
E|-0-0-0-0-0-0-0-0-0-0-0-0-0-0-0-0-7-7-7-7-7-7-7-7-7-7-7-7-7-7-7-7----
pm ^ ^   ^ ^   ^   ^ ^   ^ ^   ^   ^ ^   ^ ^   ^   ^ ^   ^ ^   ^







-----------------------------------------------------------------------
-----------------------------------------------------------------------
-----------------------------------------------------------------------
-11-11-11-11-11-11-11-11-11-11-11-11-11-11-11-11-9-9-9-9-9-9-9-9-9-9-9-
-11-11-11-11-11-11-11-11-11-11-11-11-11-11-11-11-9-9-9-9-9-9-9-9-9-9-9-
-9--9--9--9--9--9--9--9--9--9--9--9--9--9--9--9--7-7-7-7-7-7-7-7-7-7-7-
 ^  ^     ^  ^     ^     ^  ^     ^  ^     ^     ^ ^   ^ ^   ^   ^ ^  

-------------|
-------------|
-------------|	   Repeat Verse 2X
9-9-9-9-9----|
9-9-9-9-9----|
7-7-7-7-7----| 
^ ^   ^
Comments