Seven Places - Yours Chords & Tabs

 

Yours Chords & Tabs

Seven Places Chords & Tabs

Version: 1 Type: Tab 0 ratings
1 star 2 stars 3 stars 4 stars 5 stars
comments

Yours Tab

Band  : Seven Places
Song  : Yours
Album : Lonely For The Last Time
Year  : 2003
Track : #1/13


http://www.sevenplaces.com is the website for these guys you should check them out.
Awsome band!


INTRO 1

Guitar 1
e |---------------------------------------------------------------------------|
B |---------------------------------------------------------------------------|
G |--7-7-7-4-4-4-4-4----------------------------------------------------------|
D |--7-7-7-4-4-4-4-4-4-4-4-5-5-5-5--------------------------------------------|
A |--5-5-5-2-2-2-2-2-4-4-4-5-5-5-5--------------------------------------------|
E |------------------2-2-2-3-3-3-3--------------------------------------------|

INTRO 2

Guitar 1
e |---------------------------------------------------------------------------|
B |---------------------------------------------------------------------------|
G |--7-7-7-7-4-4-4-4-----------------7-7-7-7-4-4-4-4-----------------7~-------|
D |--7-7-7-7-4-4-4-4-4-4-4-4-5-5-5-5-7-7-7-7-4-4-4-4-4-4-4-4-5-5-5-5-7--------|let ring
A |--5-5-5-5-2-2-2-2-4-4-4-4-5-5-5-5-5-5-5-5-2-2-2-2-4-4-4-4-5-5-5-5-5--------|
E |------------------2-2-2-2-3-3-3-3-----------------2-2-2-2-3-3-3-3----------|

Guitar 2

e |--------------------------------------------------------------------------|
B |--------------------------------------------------------------------------|
G |--7-6---7-6---7-6-7-6---7-6---7-6-7-6---7-6---7-6-7-6----7-6---7-6--------|
D |------7-----7---------7-----7---------7-----7----------7-----7------------|
A |--------------------------------------------------------------------------|
E |--------------------------------------------------------------------------|


VERSE (start half way through verse)


Guitar 1
[ Tab from: http://www.guitartabs.cc/tabs/s/seven_places/yours_tab.html ]
     ************
e |----------------------------------------------------------------------------|
B |----------------------------------------------------------------------------|
G |--7777777777777776------------7777777777777776------------------------------|
D |--7777777777777776------------****************-X4---------------------------|
A |--5555555555555554------------5555555555555554------------------------------|
E |----------------------------------------------------------------------------|

CHORUS

Guitar 1
e |----------------------------------------------------------------------------|
B |----------------------------------------------------------------------------|
G |--7-7-7-7-5-5-5-5-----------------------------------------------------------|
D |--7-7-7-7-5-5-5-5-4-4-4-4-5-5-5-5-------------------------------------------|
A |--5-5-5-5-3-3-3-3-4-4-4-4-5-5-5-5-X4----------------------------------------|
E |------------------2-2-2-2-2-3-3-3-------------------------------------------|


Riff  (listen to the song for timing)

Guitar 1

e |-----------------------------------------------------------------------------|
B |-----------------------------------------------------------------------------|
G |---77-----44----------------------7------------------------------------------|
D |---77-----44-----44-4----55-------7-let ring---------------------------------|
A |---55-----22-----44-4----55-X2----5------------------------------------------|
E |-----------------22-2----33--------------------------------------------------|

Guitar 2

e |--------------------------------------------------------------------------|
B |------10-------7---7-6------------10-7--10-7--7h8p7-----10-7--10-7-7h8p7--|
G |----------------------7-9-7-X2----------------------7-9-------------------|
D |--------------------------------------------------------------------------|
A |--------------------------------------------------------------------------|
E |--------------------------------------------------------------------------|

e |----------------------------------------------------------------------------|
B |----------------------------------------------------------------------------|
G |--77777777------------------------------------------------------------------|
D |----------------------------------------------------------------------------|
A |----------------------------------------------------------------------------|
E |----------------------------------------------------------------------------|

ORDER

INTRO 1
INTRO 2
VERSE
CHORUS
INTRO 2
VERSE
CHORUS
RIFF
INTRO 1 X4
CHORUS X2... let ring
Comments