Seven Nations - Twelve Chords & Tabs

 

Twelve Chords & Tabs

Seven Nations Chords & Tabs

Version: 1 Type: Tab 0 ratings
1 star 2 stars 3 stars 4 stars 5 stars
comments

Twelve Tab

   
Alright.. Here is my lovely tab.. sorry I didn't add the second bridge..
I'll work on it! This is from the band Seven Nations .. www.sevennations.com
from their cd ' The Factory '. Maybe it'll actually work this time!
[ Tab from: http://www.guitartabs.cc/tabs/s/seven_nations/twelve_tab.html ]
_____________________________________________________________________________
	     Twelve - Seven Nations
-----------------------------------------------------------------------------
Tabbed by:Russa Aryl
Email: hazellion_tywana@yahoo.com
Tuning: Standard ( EADGBe )
Capo 3
Verse
e|---6------------4---------------6----3---3--------------------------------|
B|---6------------5---------------6-----6---6-------------------------------|
G|---3------------4---------------3------3---3------------------------------|
D|---5------------3---------------4-----------4-----------------------------|
A|---5------------3---------------5------------5----------------------------|
E|---3------------x---------------3-----------------------------------------|
   Out from the ashes of gray desire
e|---6------------4---------------6----3---3--------------------------------|
B|---6------------5---------------6-----6---6-------------------------------|
G|---3------------4---------------3------3---3------------------------------|
D|---5------------3---------------4-----------4-----------------------------|
A|---5------------3---------------5------------5----------------------------|
E|---3------------x---------------3-----------------------------------------|
   Out from the dream and into the fire
e|---6------------4---------------6----3---3--------------------------------|
B|---6------------5---------------6-----6---6-------------------------------|
G|---3------------4---------------3------3---3------------------------------|
D|---5------------3---------------4-----------4-----------------------------|
A|---5------------3---------------5------------5----------------------------|
E|---3------------x---------------3-----------------------------------------|
   I said alot, it won't mean a thing.
e|---6------------4---------------6-----------------------------------------|
B|---6------------5---------------6-----------------------------------------|
G|---3------------4---------------3-----------------------------------------|
D|---5------------3---------------4-----------------------------------------|
A|---5------------3---------------5-----------------------------------------|
E|---3------------x---------------3-----------------------------------------|
Chorus
e|----6-------6----------6--------------------------------------------------|
B|----6-------5----------6--------------------------------------------------|
G|----3-------4----------3--------------------------------------------------|
D|----3-------3----------5--------------------------------------------------|
A|----5-------3----------6--------------------------------------------------|
E|----6-------x----------3--------------------------------------------------|
      No .... gods .. could be..
e|----6-------6----------6-------------------------------------------------|
B|----6-------5----------6--------------------------------------------------|
G|----3-------4----------3--------------------------------------------------|
D|----3-------3----------5--------------------------------------------------|
A|----5-------3----------6--------------------------------------------------|
E|----6-------x----------3--------------------------------------------------|
   That cru - el..   to me...

Bridge 1
e|---6-----6--------6-------------------------------------------------------|
B|---6-----6--------6-------------------------------------------------------|
G|---3-----5--------3-------------------------------------------------------|
D|---5-----5--------5-------------------------------------------------------|
A|---5-----3--------6-------------------------------------------------------|
E|---3-----x--------3-------------------------------------------------------|
   And I blame the sun

e|---6-----6--------6-------------------------------------------------------|
B|---6-----6--------6-------------------------------------------------------|
G|---3-----5--------3-------------------------------------------------------|
D|---5-----5--------5-------------------------------------------------------|
A|---5-----3--------6-------------------------------------------------------|
E|---3-----x--------3-------------------------------------------------------|
   And I blame the moon

e|---6-----6--------6-------------------------------------------------------|
B|---6-----6--------6-------------------------------------------------------|
G|---3-----5--------3-------------------------------------------------------|
D|---5-----5--------5-------------------------------------------------------|
A|---5-----3--------6-------------------------------------------------------|
E|---3-----x--------3-------------------------------------------------------|
  And I blame myself

e|---6-----6--------6-------------------------------------------------------|
B|---6-----6--------6-------------------------------------------------------|
G|---3-----5--------3-------------------------------------------------------|
D|---5-----5--------5-------------------------------------------------------|
A|---5-----3--------6-------------------------------------------------------|
E|---3-----x--------3-------------------------------------------------------|
    And I -- I -- I

e|---6-----6--------6-------------------------------------------------------|
B|---6-----6--------6-------------------------------------------------------|
G|---3-----5--------3-------------------------------------------------------|
D|---5-----5--------5-------------------------------------------------------|
A|---5-----3--------6-------------------------------------------------------|
E|---3-----x--------3-------------------------------------------------------|
    Blame--  you...

Verse 1
Verse 2
Chorus
Verse 3
Chorus
Bridge1
Verse 3
Bridge 2 ( not included . lol )
Chorus

| /  slide up
| \  slide down
| h  hammer-on
| p  pull-off
| ~  vibrato
| +  harmonic
| x  Mute note
=============================================================================
Comments