Seven Mary Three - Waters Edge Chords & Tabs

 

Waters Edge Chords & Tabs

Seven Mary Three Chords & Tabs

Version: 6 Type: Tab 0 ratings
1 star 2 stars 3 stars 4 stars 5 stars
comments

Waters Edge Tab

-------------------------------------------------------------------------------
                  Waters Edge - Seven Mary Three
-------------------------------------------------------------------------------

[ Tab from: http://www.guitartabs.cc/tabs/s/seven_mary_three/waters_edge_tab_ver_6.html ]
By:Stampx
x = scratches
~ = pauses
			main riff
e|---------------------------------------------------------------|
B|---0-----------------------------------------------------------|
G|----0----0---0-------------------------------------------------|
D|--2-----2---2--------------------------------------------------|
A|-2-----3---2---------------------------------------------------|
E|---------------------------------------------------------------|

			fill
e|---------------------------------------------------------------|
B|---------------------------------------------------------------|
G|----55xxx5-----------------------------------------------------|
D|----55xxx5-----------------------------------------------------|
A|----77xxx7-----------------------------------------------------|
E|---------------------------------------------------------------|


this is most of the song, i cant figure out the rest
Comments