Seven Mary Three - Over Your Shoulder Chords & Tabs

 

Over Your Shoulder Chords & Tabs

Seven Mary Three Chords & Tabs

Version: 2 Type: Bass Tab 0 ratings
1 star 2 stars 3 stars 4 stars 5 stars
comments

Over Your Shoulder Bass Tab

   
 BTAB: Over Your Shoulder 
Artist: Seven Mary Three 
 Album: Orange Country 
Author: Rattman (jratt0@hotmail.com) 
  

A very mellow country-ish song from seven mary three. The Bass is pretty 
simple. 
  
Drop D Tuning. 
  

Intro and Verse (rhythm changes in verse): 

G------------------------------------------------------------------------ 
D------------------------------------------------------------------------ 
A-------3---------------------------------------------------------------- 
D-5-4-2------------------------------------------------------------------ 
[ Tab from: http://www.guitartabs.cc/tabs/s/seven_mary_three/over_your_shoulder_btab_ver_2.html ]
"jump track..." 
G------------------------------------------------------------------------ 
D------------------------------------------------------------------------ 
A------------------------------------------------------------------------ 
D-0~--2--(/12)----------------------------------------------------------- 
          ^slide is done only in some parts. 

Chorus: 
"sooner or later..." 
G--------------------------- 
D--------------------------- 
A-----------3-3-3-3-3-3-3-3- 
D-5-5-5-7-7----------------- 

Fill (done in the middle part where drums stop and in the outro) 
G--------------- 
D--------------- 
A-3h5-3-2-0----- 
D-----------5-5- 

Outro: 

G------------ 
D------------ 
A------------ 
D-3-3-3-3-3~- 

The fill is done in the outro as well in between the guitar parts. 
Comments