Seven Mary Three - Lucky Chords & Tabs

 

Lucky Chords & Tabs

Seven Mary Three Chords & Tabs

Version: 1 Type: Tab 1 rating
1 star 2 stars 3 stars 4 stars 5 stars
comments

Lucky Tab

   

Seven Mary Three
Lucky

The other ones weren't very accurate in all places, so I decided
to go ahead and tab a full version of every bit of guitar I hear
in the song, just for those who want it. 

Guitar 1 is the rythm guitar, which plays the chords shown below:

Chords:
G#m F#m   E   B
--4---0---0---2                    
--4---0---0---4		            
--4---3---3---4	 	           
--6---4---4---4
--6---2---2---2
--4---2---0---X

Guitar 2 is the lead guitar, which plays the small parts throughout the song.
Some parts are very hard to hear, but they are there. 

Verse:

G#m			         F#m	             E	
Mean Mr. Mustard says he's bored of life in the district
  
   G#m			           F#m	                 E	
Can't afford the French Quarter High, says it gets old real quick 

      G#m                F#m                                   E
 And he pales up next to me                And scrawled on the pavement
e-----------------------------------------------------------------------------------------
B-----------------------------------------------------------------------------------------
G-------------------------------9s11~~~---------------------------------------------------
D--------------9s11~~~~~~~~~~~~~----------------------------------------------------------
A-------------------------------------------------------------9s11~~~~~~~~~~~~~~~~~~~~----
E-----------------------------------------------------------------------------------------

          G#m             F#m              E
 It says, son...time is all the luck you need
e--------------------------------------------------------------------------------
B--------------------------------------------------------------------------------
G-------------------------9s11~~~~~~~~~~~~~--------------------------------------
D--------9s11~~~~~~~~~~~~~-------------------------------------------------------
A------------------------------------------9s11~~~~~~~~~~~~~~~~~~~~~~~~~~~~~11-9-
E--------------------------------------------------------------------------------


Chorus:
  
    B			   B
And if I say lucky then my tongue'll stay tied,
     G#m		F#m		E
And I won't betray the things that I hide.
       B		      B
There's not enough years underneath this belt,
    G#m            F#m            E 
For me to admit the way that I felt.


Verse 2:
 G#m                        F#m                      E   
 And mean Mr. Mustard says dont be..the wave that crashes

         G#m                  F#m                                        E
 From the sea of discontent,. . . he says he's wrestled with that . . . blanket.

 G#m                         F#m                   E
 Leaves you cold and wet, . . . . Anyway you stretch it,    
e--------------------------------------------------------------------------
B--------------------------------------------------------------------------
G----------------------------9s11~~~---------------------------------------
D-------------9s11~~~~~~~~~~~----------------------------------------------
A------------------------------------------------9s11~~~~~~~~~~~~~---------
E--------------------------------------------------------------------------

               G#m                   F#m                          E
 Devine apathy, . . . disease of my youth, . . .watch that you dont. . . catch it.
e--------------------------------------------------------------------------------------------
B--------------------------------------------------------------------------------------------
G----------------------------------9s11~~~---------------------------------------------------
D-------------9s11~~~~~~~~~~(9)--------------------------------------------------------------
A---------------------------------------------------------9h11~~~~~~~~~~~9~~~~~~~~(9s11)~~~~-
E--------------------------------------------------------------------------------------------

Chorus:
 
 B                            B 
 And if I stay lucky then my tounge'll stay tied,
e---------------------------------------------------------------
B------7s9--------7------9--------7-----------------------------
G---------------------------------------------------------------
D---------------------------------------------------------------
A---------------------------------------------------------------
E---------------------------------------------------------------

 G#m                     F#m            E
 And I wont betray   the things that I hide.
e------------------------------------------------------------------------
B------5-5s7-------7------9-------7---------5-5s7------5------0-------5--
G------------------------------------------------------------------------
D------------------------------------------------------------------------
A------------------------------------------------------------------------
E------------------------------------------------------------------------

  E
e---------------------------------------------------------------
B------5h7-----0------7------5------0----------------
G---------------------------------------------------------------
D---------------------------------------------------------------
A---------------------------------------------------------------
E---------------------------------------------------------------

B                            B
 And there's not enough years underneath this belt,
e---------------------------------------------------------------
B----------7s9-----------------7-------9-----7------------------
G---------------------------------------------------------------
D---------------------------------------------------------------
A---------------------------------------------------------------
E---------------------------------------------------------------
[ Tab from: http://www.guitartabs.cc/tabs/s/seven_mary_three/lucky_tab.html ]
 G#m                   F#m          E
 For me to admit the way   that I felt.
e---------------------------------------------------
B------5-5s7----7----9-----7---------5~~~~~~~-------
G---------------------------------------------------
D---------------------------------------------------
A---------------------------------------------------
E---------------------------------------------------


Bridge:

 F#m                            E
Down the wave that crashes, from A sea that turns itself
e--0-------0-0-------0---0--------0-----0------0-0---0--------0-----------------------
B--0-------0-0-------0----0-------0-----0------0-0---0---------0----------------------
G--3-------3-3-------3-----3------3-----3------3-3---3----------3---------------------
D--4-------4-4-------4------4-----4-----4------4-4---4-------------4------------------
A--2-------2-2-------2------------2-----2------2-2---2--------------2-----------------
E--2-------2-2-------2------------0-----0------0-0---0--------------------------------
 
F#m
Inside out every chance I get
 E
See what it's like in hell, yeah e yeah		


Chorus:
 
 B                            B 
 And if I stay lucky then my tounge'll stay tied,
e---------------------------------------------------------------
B---------------7s9---------7------9--------7-----------------------------
G---------------------------------------------------------------
D---------------------------------------------------------------
A---------------------------------------------------------------
E---------------------------------------------------------------

 G#m                     F#m            E
 And I wont betray   the things that I hide.
e---------------------------------------------------------------------------------
B------5-5s7-------7--9--7--9--7-------------5-5h7-----0-----5h7-----0-----7------0-
G---------------------------------------------------------------------------------
D---------------------------------------------------------------------------------
A---------------------------------------------------------------------------------
E---------------------------------------------------------------------------------

  E
e---------------------------------------------------------------
B-------7------0------7------0-------------5--------------------
G---------------------------------------------------------------
D---------------------------------------------------------------
A---------------------------------------------------------------
E---------------------------------------------------------------

B                            B
 And there's not enough years underneath this belt,
e---------------------------------------------------------------
B----------7s9-----------------7-------9-----7------------------
G---------------------------------------------------------------
D---------------------------------------------------------------
A---------------------------------------------------------------
E---------------------------------------------------------------

 G#m                   F#m          E
 For me to admit the way   that I felt.
e----------------------------------------------------------------------------
B------5-5s7----7----9-----7---------7----0---5-----0-----7-----5--5-----0---
G----------------------------------------------------------------------------
D----------------------------------------------------------------------------
A----------------------------------------------------------------------------
E----------------------------------------------------------------------------
 
 B                            B 
 And if I stay lucky then my tounge'll stay tied,
e---------------------------------------------------------------
B---------------7s9---------7------9--------7-------------------
G---------------------------------------------------------------
D---------------------------------------------------------------
A---------------------------------------------------------------
E---------------------------------------------------------------

 G#m                     F#m            E
 And I wont betray   the things that I hide.
e------------------------------------------------------------------------
B------5-5s7-------7------9-------7---------5-5s7------0------5-------0--
G------------------------------------------------------------------------
D------------------------------------------------------------------------
A------------------------------------------------------------------------
E------------------------------------------------------------------------

  E
e---------------------------------------------------------------
B------5h7-----0------7------5------0---------------------------
G---------------------------------------------------------------
D---------------------------------------------------------------
A---------------------------------------------------------------

B                            B
 And there's not enough years underneath this belt,
e---------------------------------------------------------------
B----------7s9-----------------7-------9-----7------------------
G---------------------------------------------------------------
D---------------------------------------------------------------
A---------------------------------------------------------------
E---------------------------------------------------------------

 G#m                   F#m          E
 For me to admit the way   that I felt.
e-----------------------------------------------------------------
B------7s12----12-11-10---9-7s9----0-------5~~~---------------------
G-----------------------------------------------------------------
D-----------------------------------------------------------------
A-----------------------------------------------------------------
E-----------------------------------------------------------------


Thats it. It;s a very well written song, and fun to play too.

James Gree(spud)
Scout2527@aol.com

Oh yeah, this is my first tab too:)
Comments