Seven Mary Three - Found My Center Chords & Tabs

 

Found My Center Chords & Tabs

Seven Mary Three Chords & Tabs

Version: 1 Type: Tab 0 ratings
1 star 2 stars 3 stars 4 stars 5 stars
comments

Found My Center Tab

   
Drop C tuning CGCFAD

intro

D---2--------------------|
A---3-3-3-3--3-3-3-------|
F---2-2-2-2--2-2-2-------|
C-0-0-0-0-0--0-0-0---0-2-|
G-0---0-0-0--0-0-0-3-----|
C-0----------------------|

D---2---------------3-2-|
A---3-3-3-3--3-3-3--3-3-|
F---2-2-2-2--2-2-2--2-2-|
C-0-0-0-0-0--0-0-0--0-0-|
G-0---0-0-0--0-0-0------|
C-0---------------------|

verse

C_________A#____________________F
My tired eyes are blackened wicks

____________________G_____F
Razor tucked under my chin

C_________A#___________________F
Quit quit quitters started quitting

___________G____F
One last time

C__________A#_________________F
Take me down to the other side

__________________G___________F
Where all the lights are handed out

C_____________A#______________F
Mine is empty mine is shattered and powered

G______F
down

A/A#_____A#________________C
How she cuts from the inside
[ Tab from: http://www.guitartabs.cc/tabs/s/seven_mary_three/found_my_center_tab.html ]
_____________________________A/A#
Whispers everything's all right

____________A#_____________F
She's a late star rising up

______________G_____F
To me she shines

chorus

D----------------------|
A----------------------|
F-7/5------------------|
C-7/5-5-5h7--3-3h5-3-3-|
G-7/3-5-5h7--3-3h5-3-3-|
C-----5-5h7--3-3h5-3-3-|
________________she found my


D----------------------|
A----------------------|
F-7/5------------------|
C-7/5-5-5h7--3-3h5-3-3-|
G-7/3-5-5h7--3-3h5-3-3-|
C-----5-5h7--3-3h5-3-3-|
________________she found my

D--------------------|
A--------------------|
F-7/10-5-5/7---------|
C-7/10-5-5/7-3-3h5-3-|
G-8/8--3-3/5-3-3h5-3-|
C------------3-3h5-3-|
_______________she found my

D-----------------|
A-----------------|
F-----------------|
C-x-x-x-x-x-3-5-3-|
G-x-x-x-x-x-3-5-3-|
C-x-x-x-x-x-3-5-3-|
__________she found my center

verse 3

C____________________A#
Concentrate so I can find myself

_________________C
I can't get back all the time I wasted

A#
She keeps an eye on me

chords

C=000232 or 0355
A#=x3023
A/A#=x2023 or x255
F=333xxx G=555xxx
Comments