Seven Mary Three - Cumbersome Chords & Tabs

 

Cumbersome Chords & Tabs

Seven Mary Three Chords & Tabs

Version: 5 Type: Tab 0 ratings
1 star 2 stars 3 stars 4 stars 5 stars
comments

Cumbersome Tab

Seven Mary Three
Cumbersome

Intro/Verse
        "She Calls me...
E:--2-2-xxxx-2-2-xxxx--0-0-xxx-0--(0xx)--2-2-xxx-2-2-xxxx--2-2-xxx-2-|
B:--2-2-xxxx-2-2-xxxx--0-0-xxx-0--(0xx)--2-2-xxx-2-2-xxxx--2-2-xxx-2-|
G:--3-3-xxxx-3-3-xxxx--1-1-xxx-1--(1xx)--4-4-xxx-4-4-xxxx--3-3-xxx-3-|
D:--4-4-xxxx-4-4-xxxx--2-2-xxx-2--(2xx)--4-4-xxx-4-4-xxxx--4-4-xxx-4-|
A:--4-4-xxxx-4-4-xxxx--2-2-xxx-2--(2xx)--2-2-xxx-2-2-xxxx--4-4-xxx-4-|
E:--2-2-xxxx-2-2-xxxx--0-0-xxx-0--(0xx)------xxx-----xxxx------------|
                   Let Ring Out^                       Let Ring Out^


Pre-Chorus
    "I have become...           d du d u d udu d
E:--2-2------5-5------0-0-------2-xx-2-x-2-xxx-2---------------------|
B:--2---2----5---5----0---0-----2-xx-2-x-2-xxx-2---------------------|
G:--3-----3--6-----6--1-----1---3-xx-3-x-3-xxx-3---------------------|
D:--4--------7--------2---------4-xx-4-x-4-xxx-4---------------------|
A:--4--------7--------2---------4-xx-4-x-4-xxx-4---------------------|
E:--2--------5--------0---------2-xx-2-x-2-xxx-2---------------------|

[ Tab from: http://www.guitartabs.cc/tabs/s/seven_mary_three/cumbersome_tab_ver_5.html ]
Chorus
    "Too Heavy...                            d du d u d udu d
E:---22-xx------||---55-xx------||--0--------2-xx-2-x-2-xxx-2----||
B:---22-xx------||---55-xx------||--0\-7-----2-xx-2-x-2-xxx-2----||
G:---33-xx--(4x)||---66-xx--(4x)||--1\-9-----3-xx-3-x-3-xxx-3----||
D:---44-xx------||---77-xx------||--2\-9-----4-xx-4-x-4-xxx-4----||
A:---44-xx------||---77-xx------||--2\-7-----4-xx-4-x-4-xxx-4----||
E:---22-xx------||---55-xx------||--0--------2-xx-2-x-2-xxx-2----||


Post-Chorus             | Verse2
    "No No No, Na Noo.. |
E:--5-5--2--------2----||--2--2---0--0---2--0---2--------------xxxx-||
B:--5-5--2---7-7--2----||--2------0------2------2--------------xxxx-||
G:--6-6--3---9-9--3----||--3------1------4------3--3br-br-br~~~xxxx-||
D:--7-7--4---9-9--4----||--4------2------4------4--------------xxxx-||
A:--7-7--4---7-7--4----||--4------2------2------4--------------xxxx-||
E:--5-5--2--------2----||--2------0-------------2--------------xxxx-||


E:-------Plat this for the LAST Chorus...Listen to song--------------|
B:-------------------------------------------------------------------|
G:------------9h11----11-9-------------------------------------------|
D:-------9h11--------------11p9-7------------------------------------|
A:--9h12--------------------------9----------------------------------|
E:-------------------------------------------------------------------|

Intro/Verse: 3x
Pre-Chorus: 2x
Verse: 2x
Pre-Chorus: 2x
Chorus: 2x
Post-Chorus: 2x
Verse2: 3x       (1st time do not play single notes except for 3
Chorus: 2x           & the last time do not play 3 or the pick scrapes)
Post-Chorus: 4x
Comments