Seven Mary Three - Cumbersome Chords & Tabs

 

Cumbersome Chords & Tabs

Seven Mary Three Chords & Tabs

Version: 4 Type: Tab 0 ratings
1 star 2 stars 3 stars 4 stars 5 stars
comments

Cumbersome Tab

-------------------------------------------------------------------------------
			     cumbersome - seven mary three
-------------------------------------------------------------------------------
Tabbed by: DCEaton
Email: timlor121@msn.com

Tuning:STANDARD eBGDAE
[ Tab from: http://www.guitartabs.cc/tabs/s/seven_mary_three/cumbersome_tab_ver_4.html ]
e|-------------------------------------------------------------------------|
B|-------------------------------------------------------------------------|
G|-------------------------------------------------------------------------|
D|-----5-----5-------XXXX-----5-----5-------XXX5---------3----3----XXX3~~~~|
A|-----5-----5-------XXXX-----5-----5-------XXX5---------3----3----XXX3~~~~|
E|-----3-----3-------XXXX-----3-----3-------XXX3---------1----1----XXX1~~~~|

e|-------------------------------------------------------------------------|
B|-------------------------------------------------------------------------|
G|-------------------------------------------------------------------------|
D|--2---2---XXXX----2---2---XXXX----5---5---XXXX--5~~~---------------------|
A|--2---2---XXXX----2---2---XXXX----5---5---XXXX--5~~~---------------------|
E|--0---0---XXXX----0---0---XXXX----3---3---XXXX--3~~~---------------------|





| ~  Play through
Comments