Seven Mary Three - Cumbersome Chords & Tabs

 

Cumbersome Chords & Tabs

Seven Mary Three Chords & Tabs

Version: 4 Type: Bass Tab 0 ratings
1 star 2 stars 3 stars 4 stars 5 stars
comments

Cumbersome Bass Tab

:: THII SI THE MOST PERFECT WAY YOU WILL EVER SEE THIS SOLO TABLETURED.
SO IF YOU HAVE ANY QUESTIONS THEN YOU MISREAD SOME THING SO IN OTHER
WORDS THERE SHOULD BE NO QUESTIONS THANKS........................... ::

KEY:/ SLIDE

---------------------------------------------------------------|
-----------------------2--2-2-2--2-2-2--2-2--2-3-0-------------|
---------------------------------------------------------------|            1ST LINE
--2--2-2-2--2-2-2-2-2/-----------------------------------------|
[ Tab from: http://www.guitartabs.cc/tabs/s/seven_mary_three/cumbersome_btab_ver_4.html ]
CONTINUING

---------------------------------------------------------------|
---------------------------------------------------------------|
--2--2-2-2--2-2-2--2-2--2-3-0----------------------------------|            2ND LINE
------------------------------2--2-2-2--2--2--2--2-------------|

PLAY 1ST LINE
PLAY 2ND LINE
PLAY 1ST LINE
PLAY 2ND LINE

::  I KNOW ITS FRECKIN EASY AND OH YEAH LKE I SAID THIS IS THE EXACT
    WAY TO PLAY IT SO THERE SHOUL BE NO QS AND I HAVE THE RIGHT TO IGNORE
    PEACE OUT ::
Comments