Seven Mary Three - Cumbersome Chords & Tabs

 

Cumbersome Chords & Tabs

Seven Mary Three Chords & Tabs

Version: 3 Type: Bass Tab 0 ratings
1 star 2 stars 3 stars 4 stars 5 stars
comments

Cumbersome Bass Tab

From: FeedBakc@aol.com
Date: Wed, 3 Jan 1996 10:13:05 -0500
Subject: BTAB: Cumbersome BY Seven Mary Three

Cumbersome
by Seven Mary Three
from the album American Standard
=0D

--------------------------------------------------------------------
This TAB transcription was created using TAB MASTER version 1.0
by Ofir Zwebner, e-mail: ofirz1@ccsg.tau.ac.il
                    snail-mail: Ehoud 10, Tel Aviv, 69936, Israel
--------------------------------------------------------------------
=0D
Hi all! Hope you enjoy this.  The bass "solo" is just the verse =

without anyone else playing, so I didn't bother putting it in =

separately.  =

=0D

     verse
G:||---------------------|---------------------|
D:||*--------------------|-2-2---2-2---4-2-0---|
A:||*----------------2-4-|-------------------4-|
E:||-2-2---2-2---2-4-----|---------------------|
=0D


=0D

                                  "I have become..."
G:--------------------|--------||-------------------------------||
D:--------------------|-------*||*-----------------------------*||
A:-2---2--2---4-2-0---|-------*||*-----------------------------*||
E:------------------4-|-2--2-2-||-2-----5-----0-----0h2---2-2-2-||
=0D


                                                    =
[ Tab from: http://www.guitartabs.cc/tabs/s/seven_mary_three/cumbersome_btab_ver_3.html ]
=0D
   "Too heavy..."
G:------------------------|------------------------|
D:*-----------------------|------------------------|
A:*-----------------------|------------------------|
E:-2-2---2-2---2-2---2-2--|-5-5---5-5---5-5---5-5--|
=0D


=0D

                        post-chorus
G:-------------------||--------------------------||
D:------------------*||*------------------------*||
A:------------------*||*------------------------*||
E:-0-0---0--0h2----2-||-5-5-----2------5-0-----2-||
=0D


                                  =

=0D
   fill during last chorus
G:------------------------------||
D:---------2h4---4---2----------||
A:-----2h4-------------4-2-0----||
E:-2h4------------------------2-||
=0D


              ______________________________________________
             | transcribed by:                              |
             | feedbakc@aol.com                             |
             |       __________________                  |  |
             |      /    /__  /__      \             \   |  |
             |     /____/____/________ /         __    \ |  |
             |    /                    \   /\   /  \   / |  |
             |   /                       \___\ |     /   |  |
             |  /     __________________/     \ \__/     |  |
             |______________________________________________|
             Comments? Corrections? Requests (that I reserve
             the right to ignore)?
=0D


=0D

--PART.BOUNDARY.0.15913.mail04.mail.aol.com.820681983--


Comments