Seven Channels - Breathe Chords & Tabs

 

Breathe Chords & Tabs

Seven Channels Chords & Tabs

Version: 1 Type: Tab 0 ratings
1 star 2 stars 3 stars 4 stars 5 stars
comments

Breathe Tab

standard tuning, moderate dist.                             


 The heavy power chord during the verse is the bass, 
 not the guitar. I came up with this myself so I dont 
 know if its right or not,but its better than nothing. 
 Feel free to improve on it.

[ Tab from: http://www.guitartabs.cc/tabs/s/seven_channels/breathe_tab.html ]
Intro/Verse
E|---------------------------------\
B|----------5-5-5----------4-4-4--- \
G|--------6--------------4---------  \  repeat
D|------6--------------4-----------  /
A|----4--------------2------------- /
E|---------------------------------/



Chorus
E|--------------------------------------------------------
B|--------------------------------------------------------
G|--------------------------------------------------------
D|----7--7--7--x--9--x--9--x--11-x--11-x--6--6------------
A|----7--7--7--x--9--x--9--x--11-x--11-x--6--6------------
E|----5--5--5--x--7--x--7--x--9--x--9--x--4--4------------



Thats pretty much it. Go Smurfs.
Comments