Settle The Score - Thinking Of You Chords & Tabs

 

Thinking Of You Chords & Tabs

Settle The Score Chords & Tabs

Version: 1 Type: Tab 0 ratings
1 star 2 stars 3 stars 4 stars 5 stars
comments

Thinking Of You Tab

   
Band: Settle the score
Song Title: Thinking Of You
Tabed by: Novo Tobel
Tuning: Drop C (CGCFAD)

Verse:

 A:
D|----------------------|
A|----------------------|
F|----------------------|
C|4-------7-8-7\8--7--5-|
G|4-------7-8-7\8--7--5-|
C|4-------7-8-7\8--7--5-|

 B:
D|---------------------------------------------------------------------|
A|---------------------------------------------------------------------|
F|---------------------------------------------------------------------|
C|4------7\8------4------7---8---4------7\8------4------7-8--7\8--7--5-| x2
G|4------7\8------4------7---8---4------7\8------4------7-8--7\8--7--5-|
C|4------7\8------4------7---8---4------7\8------4------7-8--7\8--7--5-|

Chorus:

 A:
D|-------------------------------------------------------------|
A|-------------------------------------------------------------|
F|-------------------------------------------------------------|
C|-4-------------7---5----------8---7--------------------8-7-5-| x2
G|-4-------------7---5----------8---7--------------------8-7-5-|
C|-4-------------7---5----------8---7--------------------8-7-5-|
[ Tab from: http://www.guitartabs.cc/tabs/s/settle_the_score/thinking_of_you_tab.html ]
 B:
D|-------------------------------------------------------------|
A|-------------------------------------------------------------|
F|-------------------------------------------------------------|
C|-4---4-4-4-4-4-7---5--5-5-5-5-8---7--7-7-7-7-7-7-7-7-7-8-7-5-| x2
G|-4---4-4-4-4-4-7---5--5-5-5-5-8---7--7-7-7-7-7-7-7-7-7-8-7-5-|
C|-4---4-4-4-4-4-7---5--5-5-5-5-8---7--7-7-7-7-7-7-7-7-7-8-7-5-|
PM:    ' ' ' ' '	' ' ' '        ' ' ' ' ' ' ' ' '

End:

 A:				x2
D|-------------------------------|-------------------------------|
A|-------------------------------|-------------------------------|
F|-------------------------------|-------------------------------|
C|-4--------8-7-5-4--------8-7-5-|-4---4-------------------------|
G|-4--------8-7-5-4--------8-7-5-|-4---4-------------------------|
C|-4--------8-7-5-4--------8-7-5-|-4---4-------------------------|

 B:
D|---------------------------------------------------------------|
A|---------------------------------------------------------------|
F|---------------------------------------------------------------|
C|-8--7--5--7--8--7--4-4-4-4-4-8--7--5--7--8--7--4-4-4-5---------|
G|-8--7--5--7--8--7--4-4-4-4-4-8--7--5--7--8--7--4-4-4-5---------|
C|-8--7--5--7--8--7--4-4-4-4-4-8--7--5--7--8--7--4-4-4-5---------|

 C:
D|---------------------------------------------------------------|
A|---------------------------------------------------------------|
F|---------------------------------------------------------------|
C|-8--7--5--7--8--7--4-4-4-4-4-8--7--5--7--8--7--4-4-------------|
G|-8--7--5--7--8--7--4-4-4-4-4-8--7--5--7--8--7--4-4-------------|
C|-8--7--5--7--8--7--4-4-4-4-4-8--7--5--7--8--7--4-4-------------|

Order:

1st Verse ( A and B )
1st Chorus ( A and B )
2nd Verse ( A and B )
2nd Chorus ( B x2 )
End ( A, B, C and B )
Verse ( A )
Comments