Session Road - Suntok Sa Buwan Chords & Tabs

 

Suntok Sa Buwan Chords & Tabs

Session Road Chords & Tabs

Version: 7 Type: Tab 0 ratings
1 star 2 stars 3 stars 4 stars 5 stars
comments

Suntok Sa Buwan Tab

Tabbed by: Jerome Reyes
Suntok sa Buwan (acoustic version)
Sessionroad


Intro: A---AM7---DM7

Play this after A and AM7

e------------------------------|
B------------------------------|
G------------------------------|
D------------------------------|
A-------------4-5-4------------|
E---------3/5------------------|

Verse: same as intro
Refrain: Bm--D (2x) 1st guitar
Chorus: A--F#m--E--D (pede rin D9)  1st guitar

Refrain:
2nd guitar
e---------------2------------------------5------|
B-------------3----------------------------7----|
G----------4------------------------7-----------|	(2x)
D--------4-----------------------7--------------|
A-----------------------------------------------|
E-----------------------------------------------|


chorus:
2nd guitar
e---------------10-----------|	   then	e-----------14-----10----|	e---------------10-----------|
B--------12-13------13-------|		B----12--13--------------|	B--------12-13------13-------|
G----------------------------| 2x       	G------------------------|	G----------------------------|
D----------------------------|		D------------------------|	D----------------------------|
A----------------------------|		A------------------------|	A----------------------------|
E----------------------------|		E------------------------|	E----------------------------|

[ Tab from: http://www.guitartabs.cc/tabs/s/session_road/suntok_sa_buwan_tab_ver_7.html ]
Solo:
e-------------------------------------------------------|
B--------------------------9----------------------------|
G-------------7-6h7p6-------------7-6h7p6---------------|
D---------------------7-7/9---------------7-7/9\7-------|
A-----7-7-7/9-----------------5/7-----------------------|
E-------------------------------------------------------|

e---------------------------------|
B---------------------------------|
G-----------6-6-7-7-9-9-9/11------|
D-----9-9-9------------------7----|
A---------------------------------|
E---------------------------------|

e----------------------------------------------------------|
B--------------------------9-------------------------------|
G-------------7-6h7p6-------------7-6h7p6---7/9\7-6--------|
D---------------------7-7/9---------------7---------7------|
A-----7-7-7/9-----------------5/7--------------------------|
E----------------------------------------------------------|

e-------------------------------------------------------------------------------|
B-----10-10-10-9h10p9-7-9-7-5-7-5h7p5-------------------------------------------|
G-------------------------------------7-7/9-7-6-7-------------------------------|
D-------------------------------------------------------------------------------|
A-------------------------------------------------------------------------------|
E-------------------------------------------------------------------------------|

refrain
chorus
end with chord A
Comments