Session Road - Suntok Sa Buwan Chords & Tabs

 

Suntok Sa Buwan Chords & Tabs

Session Road Chords & Tabs

Version: 5 Type: Tab 0 ratings
1 star 2 stars 3 stars 4 stars 5 stars
comments

Suntok Sa Buwan Tab

   
submitted by: mark caisido
email:markbaby1707@yahoo.com

any suggestions email nyo lang me...sana magustuhan nyo...pero tama yan..

intro: A(pause) - A - D

after the pause (bass)
e|--------------------------|
B|--------------------------|
G|--------------------------|
D|--------------------------|
A|---------4/5\-------------|
E|---5h7--------------------|

chorus: 

during chorus
e|-----------------------------------12------------|
B|--9-10-12-10----9-10-12-10----9-10-----10--------|
G|-------------------------------------------------|
D|-------------------------------------------------|
A|-------------------------------------------------|
E|-------------------------------------------------|

e|-------------------------------------------------|
B|--9-10-12-10----9-10-12-10----9-10-12-10---------|
G|-------------------------------------------------|
D|-------------------------------------------------|
A|-------------------------------------------------|
E|-------------------------------------------------|

e|-------12-------|
B|--9-10----10----|
G|----------------|
D|----------------|
A|----------------|
E|----------------|

solo:

e|-------------------------------------------------|
B|--------------------9----------------------------|
G|---------6h7-6------------------6h7-6------------|
D|-7-7-7h9-------7-9-----7-7-7h9--------7-9-7------|
A|-------------------------------------------------|
E|-------------------------------------------------|
[ Tab from: http://www.guitartabs.cc/tabs/s/session_road/suntok_sa_buwan_tab_ver_5.html ]
e|-------------------------------------------------|
B|----------------7-7--9-9-------------------------|
G|-7-7--9-9-11-11----------------------------------|
D|-------------------------------------------------|
A|-------------------------------------------------|
E|-------------------------------------------------|

e|--------------------9----------------------------|
B|---------6h7-6------------------6h7-6---7/9-7-6--|
G|-7-7-7h9-------7-9-----7-7-7h9--------7---------7|
D|-------------------------------------------------|
A|-------------------------------------------------|
E|-------------------------------------------------|

e|-------------------------------------------------|
B|-------------------------------------------------|
G|--10-10-10-9-9-9-7-7-7---------------------------|
D|-----------------------9-9-9-7-7-7-6-6-6---------|
A|-------------------------------------------------|
E|-------------------------------------------------|

a little verse after the solo
before chorus:

e|-------------------5h7--9-9----------------------|
B|---------------5h7----------12-------------------|
G|-----------6h7-----------------------------------|
D|------7h9----------------------------------------|
A|--5h7--------------------------------------------|
E|-------------------------------------------------|

then chorus: during chorus
e|-----------------------------------12------------|
B|--9-10-12-10----9-10-12-10----9-10-----10--------|
G|-------------------------------------------------|
D|-------------------------------------------------|
A|-------------------------------------------------|
E|-------------------------------------------------|

e|-------------------------------------------------|
B|--9-10-12-10----9-10-12-10----9-10-12-10---------|
G|-------------------------------------------------|
D|-------------------------------------------------|
A|-------------------------------------------------|
E|-------------------------------------------------|

e|-------12-------|
B|--9-10----10----|
G|----------------|
D|----------------|
A|----------------|
E|----------------|
Comments