Session Road - Suntok Sa Buwan Chords & Tabs

 

Suntok Sa Buwan Chords & Tabs

Session Road Chords & Tabs

Version: 4 Type: Tab 0 ratings
1 star 2 stars 3 stars 4 stars 5 stars
comments

Suntok Sa Buwan Tab

   
INTRO

  -----------------------------x-x-|--------------------------------|
B -----------------------------x-x-|--------------------------------|
A -----------------------------x-x-|--------------------------------|
R -7-------7-------------------x-x-|7-------7-----------------------|
1 -7-------7-------4h5h4-------x-x-|7-------7-------4h5h4-----------|
  -5-------5---4-5-------------x-x-|5-------5---4-5-----------------|


      
  -2-------2-----2---2-------------|2-------2-----2---2-------------|
B -2-------2-----2---3-------------|2-------2-----2---3-------------|
A -2-------2-----2---2-------------|2-------2-----2---2-------------|
R -0-------0-----0---0-------------|0-------0-----0---0-------------|
2 ---------------------------------|--------------------------------|
  ---------------------------------|--------------------------------|

DO BAR 1 AND BAR 2 TWICE

STANZA 1

   A
  ----------------------------------|---------------------------------|
B ----------------------------------|---------------------------------|
A -14------14--13-14----------------|14----14-14--14-14--14-14--14-16-|
R ----------------------------------|---------------------------------|
3 -12------12--11-12----------------|12----12-12--12-12--12-12--12-14-|
  ----------------------------------|---------------------------------|

                       Hindi mo ba alam        Damdamin ko'y 

   D    
  -2-------2-----2---2-------------|--2-------2-----2---2-------------|
B -2-------2-----2---3-------------|--2-------2-----2---3-------------|
A -2-------2-----2---2-------------|--2-------2-----2---2-------------|
R -0-------0-----0---0-------------|--0-------0-----0---0-------------|
4 ---------------------------------|----------------------------------|
  ---------------------------------|----------------------------------|

pinagtakpan                      Makasama ka'y            suntok sa 

    A
  ----------------------------------|---------------------------------|
B ----------------------------------|---------------------------------|
A -14------14--13-14----------------|14----14-14--14-14--14-14--14-16-|
R ----------------------------------|---------------------------------|
3 -12------12--11-12----------------|12----12-12--12-12--12-12--12-14-|
  ----------------------------------|---------------------------------|

buwan                   'Di mo nga alam       Mundo mo nga'y 


   D    
  -2-------2-----2---2-------------|--2-------2-----2---2-------------|
B -2-------2-----2---3-------------|--2-------2-----2---3-------------|
A -2-------2-----2---2-------------|--2-------2-----2---2-------------|
R -0-------0-----0---0-------------|--0-------0-----0---0-------------|
4 ---------------------------------|----------------------------------|
  ---------------------------------|----------------------------------|

iyong tignan                  Kung ganyan, walang pupuntahan




REFRAIN

   Bm                               D
  ---------------------------------|--------------------------------|
B ---------------------------------|--------------------------------|
A -16--16--16--14--14--14--14--14--|7---7---7---9---9---11--11--11--|
R ---------------------------------|--------------------------------|
5 -14--14--14--12--12--12--12--12--|5---5---5---7---7---9---9---9---|
  ---------------------------------|--------------------------------|

               Hindi ko 'to gusto
              Pero 'wag kang lalayo


CHORUS

   A                                F#m
  ---------------------------------|--------------------------------|
B ---------------------------------|9---10--10--12--12--12--10--10--|
A -----14--14--16--16--16--14--14--|11--11--11--11--11--11--11--11--|
R -14--14--14--14--14--14--14--14--|11--11--11--11--11--11--11--11--|
6 -12--12--12--12--12--12--12--12--|9---9---9---9---9---9---9---9---|
  ---------------------------------|--------------------------------|

               Itanong mo sa        akin                    At tatanungin 
[ Tab from: http://www.guitartabs.cc/tabs/s/session_road/suntok_sa_buwan_tab_ver_4.html ]
   E                                D     
  -------------7---7---7-----------|--------------------------------|
B -9---10--10--9---9---9---10--10--|9---10--10--12--12--12--10--10--|
A -9---9---9---9---9---9---9---9---|11--11--11--11--11--11--11--11--|
R -9---9---9---9---9---9---9---9---|0---0---0---0---0---0---0---0---|
7 -7---7---7---7---7---7---7---7---|--------------------------------|
  ---------------------------------|--------------------------------|

       ko rin         Kung ika'y aamin            Lahat ay gagawin

                      DO BAR 6 AND BAR 7 TWICE

DO INTRO


STANZA 2 (Same as Stanza 1)
'Di mo napapansin
Kailangan mo akong dinggin
'Di habang buhay ika'y aantayin
Ito'y aking hiling
At sana naman ay tanggapin
Ng puso ko'y 'di nabibitin 

DO REFRAIN
DO CHORUS


GUITAR SOLO

    A                               C#m
  ---------------------------------|--------------------------------|
B -14--14--14--14--14--14--14--14--|9---9---9---10--10--10--12--12--|
A -16B-16B-16B-16B-16B-16B-16B-16B-|11B-11B-11B-12B-12B-12B-14B-14B-|
R ---------------------------------|--------------------------------|
8 ---------------------------------|--------------------------------|
  ---------------------------------|--------------------------------|

    D   
  ---------12------12------12------|----------------------------------|
B -10--10------10------10------10--|----------------------------------|
A -12B-12B-------------------------|7-7---9-9---11-11--13-13--14--16--|
R ---------------------------------|----------------------------------|
9 ---------------------------------|5-5---7-7---9--9---11-11--12--14--|
  ---------------------------------|----------------------------------|

REPEAT BAR 8   

     D       
   ---------12------12------12------|--------------------------------------------|
B  -10--10------10------10------10--|10h-9-(9)/7--(7)/5--(5)/7--(7)/5--3h--2h----|
A  -12B-12B-------------------------|--------------------------------------------|
R  ---------------------------------|--------------------------------------------|
10 ---------------------------------|--------------------------------------------|
   ---------------------------------|--------------------------------------------|



REFRAIN 2

    Bm                                D
   -------------5-------------------|--------5-----------------------|
B  -3-------------------------------|5-----------7-------------------|
A  -----4---------------------------|----7---------------------------|
R  ---------------------------------|--------------------------------|
11 ---------------------------------|--------------------------------|
   ---------------------------------|--------------------------------|
                      Hindi ko 'to gusto
					  
					  
    Bm                               D	 
   -------------5-------------------|2---2---2---2---2---2---2---2---|
B  -3-------3-----------------------|3---3---3---3---3---3---3---3---|
A  -----4---------------------------|2---2---2---2---2---2---2---2---|
R  ---------------------------------|0---0---0---0---0---0---0---0---|
12 ---------------------------------|--------------------------------|
   ---------------------------------|--------------------------------|			 
			      Pero 'wag kang lalayo


   ---------------------------------------------|
B  -15-15-15-14-14-14-12-12-12-10-10-10-8-8-7-7-| REPEAT
A  ---------------------------------------------| TWICE
R  -12-12-12-11-11-11-9--9--9--7--7--7--5-5-4-4-|
13 ---------------------------------------------|
   ---------------------------------------------|



DO CHORUS


CODA

  
   ---------------------------------|--------------------------------|
B  ---------------------------------|--------------------------------|
A  -13--13--14--14--16--16--14--14--|13--13--14--14--16--16--14--14--|
R  ---------------------------------|--------------------------------|
14 -11--11--12--12--14--14--12--12--|11--11--12--12--14--14--12--12--|
   ---------------------------------|--------------------------------| 


DO BAR 14 THRICE (Chord Pattern for Bar 14 and 15 is same as CHORUS)


   ---------------------------------|--------------------------------|
B  ---------------------------------|--------------------------------|
A  -13--13--14--14--16--16--14--14--|14--14--13--13--11--11--9---9---|
R  ---------------------------------|--------------------------------|
15 -11--11--12--12--14--14--12--12--|12--12--11--11--9---9---7---7---|
   ---------------------------------|--------------------------------|
Comments