Session Road - Suntok Sa Buwan Acoustic Chords & Tabs

 

Suntok Sa Buwan Acoustic Chords & Tabs

Session Road Chords & Tabs

Version: 4 Type: Tab 0 ratings
1 star 2 stars 3 stars 4 stars 5 stars
comments

Suntok Sa Buwan Acoustic Tab

   
-----------------------------------------------------------------------------
Suntok sa buwan (acoustic) Complete - Session Road
-----------------------------------------------------------------------------
Tabbed by: Noel Nodalo	
Email: Stringlizner@yahoo.com

Tuning: Standard

Intro: A-DM7 (2x)
e|-5------------------------5-----------------------------------------------|
B|-5------------------------7-----------------------------------------------|
G|-6------------------------6-----------------------------------------------|
D|-7---------------(2x)-----7-----------------------------------------------|
A|-7-------4-5-4------------5-----------------------------------------------|
E|-5--3\5------------------5-----------------------------------------------|

Verse: A-DM7 (2x)
e|-5---------5----5---------------------------------------------------------|
B|-5---------5----7---------------------------------------------------------|
G|-6---------6----6---------------------------------------------------------|
D|-7---break-7----7---------------------------------------------------------|
A|-7---------7----5---------------------------------------------------------|
E|-5---------5----5---------------------------------------------------------|

Refrain: bm-D (2x)
Guitar 1
e|-2------------5----------2----------------5-------------------------------|
B|-3------------7----------3----------------7-------------------------------|
G|-4------------7----------4----------------7-------------------------------|
D|-4------------7----------4----------------7-------------------------------|
A|-2------------5----------2----------------5-------------------------------|
E|-x------------x----------x----------------x-------------------------------|

Guitar 2
e|--------5----------2---------------5----------------2---------------------|
B|-----------------3-------------------------------3------------------------|
G|-----4---------2---------------4--------------2---------------------------|
D|---4---------0--------------4--------------0------------------------------|
A|-2-----------------------2------------------------------------------------|
E|--------------------------------------------------------------------------|

Chorus: A-F#m-E-D (2x)  
Guitar 1
e|-5--------------2--------------0--------------5---------------------------|
B|-5--------------2--------------0--------------7---------------------------|
G|-6--------------2--------------1--------------7---------------------------|
D|-7--------------4--------------2--------------7---------------------------|
A|-7--------------4--------------2--------------5---------------------------|
E|-5--------------2--------------0--------------x---------------------------|

Guitar 2
e|------------------------------------12------------------------------------|
B|-9-10-12--10----9-10-12--10----9-10-----10----9-10-12-10-----------------|
G|--------------------------------------------------------------------------|
D|--------------------------------------------------------------------------|
A|--------------------------------------------------------------------------|
E|--------------------------------------------------------------------------|

Intro A-DM7(1x)
Verse: A-DM7 (2x)
Refrain: bm-D (2x)
Chorus: A-F#m-E-D

Bridge: A-C#m-D (2x)
e|-5---------------------4------------------------5-------------------------|
B|-5---------------------5------------------------7-------------------------|
G|-6---------------------6------------------------7-------------------------|
D|-7---------------------6------------------------7-------------------------|
A|-7---------------------4------------------------5-------------------------|
E|-5---------------------X------------------------x-------------------------|
[ Tab from: http://www.guitartabs.cc/tabs/s/session_road/suntok_sa_buwan_acoustic_tab_ver_4.html ]
Guitar 2
e|--------------------------------------------------------------------------|
B|-----------------------9--------------------------------------------------|
G|---------7-6h7p6--------------7-6h7p6-----------------6-6-7-7-9-9-9\11----|
D|-----------------7-7\9----------------7-7\9-7- -9-9-9------------------11-|
A|-7-7-7\9------------------5\7---------------------------------------------|
E|--------------------------------------------------------------------------|

e|-5---------------------4---------------------------5----------------------|
B|-5---------------------5---------------------------7----------------------|
G|-6---------------------6---------------------------7----------------------|
D|-7---------------------6---------------------------7----------------------|
A|-7---------------------4---------------------------5----------------------|
E|-5---------------------X---------------------------x----------------------|

Guitar 2
e|--------------------------------------------------------------------------|
B|-----------------------9--------------------------------------------------|
G|---------7-6h7p6--------------7-6h7p6---7\9-7-6---------------------------|
D|-----------------7-7\9----------------7---------7-------------------------|
A|-7-7-7\9------------------5\7---------------------------------------------|
E|--------------------------------------------------------------------------|

e|--------------------------------------------------------------------------|
B|-10-10-10-9h10p9-7-9-7-5-7-5h7p5------------------------------------------|
G|---------------------------------7-7\9-7-6-7------------------------------|
D|--------------------------------------------------------------------------|
A|--------------------------------------------------------------------------|
E|--------------------------------------------------------------------------|

Refrain: bm-D (x2)
Guitar 1
e|-10--9-7-5-3-2--------10-9-7-5-3-2----------------------------------------|
B|-9---9-7-5-3-3--------9--9-7-5-3-3----------------------------------------|
G|-9---9-7-5-3-2--------9--9-7-5-3-2----------------------------------------|
D|--------------------------------------------------------------------------|
A|--------------------------------------------------------------------------|
E|--------------------------------------------------------------------------|

Guitar 2
e|---------------------------------------5-7-9-7----------------------------|
B|-----------------------------------7-9------------------------------------|
G|---------------------------------9----------------------------------------|
D|--------------------------7-9-11------------------------------------------|
A|----------------------7-9-------------------------------------------------|
E|--------------------------------------------------------------------------|

Chorus: A-F#m-E-D (2x)  
Guitar 1
e|-5--------------2--------------0--------------5---------------------------|
B|-5--------------2--------------0--------------7---------------------------|
G|-6--------------2--------------1--------------7---------------------------|
D|-7--------------4--------------2--------------7---------------------------|
A|-7--------------4--------------2--------------5---------------------------|
E|-5--------------2--------------0--------------x---------------------------|

Guitar 2
e|------------------------------------12------------------------------------|
B|-9-10-12--10----9-10-12--10----9-10-----10----9-10-12-10-----------------|
G|--------------------------------------------------------------------------|
D|--------------------------------------------------------------------------|
A|--------------------------------------------------------------------------|
E|--------------------------------------------------------------------------|

Outro:
Guitar 1
e|-5--------------2--------------0--------------5---------------------------|
B|-5--------------2--------------0--------------7---------------------------|
G|-6--------------2--------------1--------------7---------------------------|
D|-7--------------4--------------2--------------7---------------------------|
A|-7--------------4--------------2--------------5---------------------------|
E|-5--------------2--------------0--------------x---------------------------|
	
e|-5--------------10-------------9-9h10---------7-9-10-9--5-----------------|
B|-5--------------10-------------101010---------7-9-9--9--5---end-----------|
G|-6--------------9--------------9-9-9----------7-9-9--9--6-----------------|
D|--------------------------------------------------------------------------|
A|--------------------------------------------------------------------------|
E|--------------------------------------------------------------------------|
Comments