Session Road - Suntok Sa Buwan Acoustic Chords & Tabs

 

Suntok Sa Buwan Acoustic Chords & Tabs

Session Road Chords & Tabs

Version: 1 Type: Tab 0 ratings
1 star 2 stars 3 stars 4 stars 5 stars
comments

Suntok Sa Buwan Acoustic Tab

   
Tabbed by: Christopher Ignacio Rafael
Typed by: Albert Jason Vidal Ellazar

Intro:

E---0--0-------------------------|
B---2--2--t----------------------|
G---2--2--a----------------------| 2x
D---2--2--p----------------------|
A---0--0---------4-5-4~----------|
E---0--0----0h5------------------|


E---0-0-0-0-0-0-0-0----------|
B---7-7-7-7-7-7-7-7----------|
G---6-6-6-6-6-6-6-6----------|
D---7-7-7-7-7-7-7-7----------|
A---5-5-5-5-5-5-5-5----------|
E---x-x-x-x-x-x-x-x----------|
(pakinggan nio n lng ung song pra sa strumming) 


Verse I:

A
Hindi mo ba alam
                 DM7
Damdamin ko'y pinagtakpan
                         A  
Makasama ka'y suntok sa buwan

[ Tab from: http://www.guitartabs.cc/tabs/s/session_road/suntok_sa_buwan_acoustic_tab.html ]
      A
'Di mo nga alam
                  DM7
Mundo mo nga'y iyong tignan
                            A
Kung ganyan, walang pupuntahan


  Bm         D
Hindi ko 'to gusto
  Bm            D
Pero 'wag kang lalayo

Chorus:

  A            F#m
Itanong mo sa akin
                E
At tatanungin ko rin
             D
Kung ika'y aamin
             A
Lahat ay gagawin

Verse II:
(do chords on verse I)
'Di mo napapansin             
Kailangan mo akong dinggin
'Di habang buhay ika'y aantayin

Ito'y aking hiling
At sana naman ay tanggapin
Ng puso ko'y 'di nabibitin
     
Binabati ko ang mga katropa ko.. BSG, T-10 atbp.. ALAB YEO..
Comments