Session Road - Sana Naman Chords & Tabs

 

Sana Naman Chords & Tabs

Session Road Chords & Tabs

Version: 2 Type: Tab 0 ratings
1 star 2 stars 3 stars 4 stars 5 stars
comments

Sana Naman Tab

   
SANA NAMAN
SESSION ROAD

ito po ay sadyang mas pinaganda ng version... 
akoy lubos na nagpapasalamat kay FRANCIS...
pre, u rock! salamat sa intro ha....
and i would like to take this oppurtunity to say hi to REVNED of I.T.
i like you...
sana alam mo..

i dont know if does anybody knows these song,sadyang hilig ko lng dumiscover ng mga
song na hindi sikat. di rin ako sure sa chords na ito pero pwede na rin, nakakaloko
na rin, trip ko pa ang lyrics, sanay makarelate kau, HI NGA PALA KAY JOVEN! AY LAB YOH!

SANA NAMAN
SESSION ROAD

intro...
e|-----------------------------------|
B|--5---7---9---7----5---7---9---7---|
G|-----------------------------------|
D|-----------------------------------|
A|-----------------------------------|
E|-----------------------------------|

e|-------------------------------------|
B|--7---9---11---9----7---9---11---9---|
G|-------------------------------------|
D|-------------------------------------|
A|-------------------------------------|
E|-------------------------------------|

e|----------9--------------9-----------|
B|--7---9------9----7---9------9-------|
G|-------------------------------------|
D|-------------------------------------|
A|-------------------------------------|
E|-------------------------------------|

e|-------------------------------------|
B|--7---9---11---9----7---9---11---9---|
G|-------------------------------------|
D|-------------------------------------|
A|-------------------------------------|
E|-------------------------------------|
 

[ Tab from: http://www.guitartabs.cc/tabs/s/session_road/sana_naman_tab_ver_2.html ]
VERSE ONE:
G               Am
Heto, nag aaway na naman tayo
        Bm           C
namomroblema, napapaiyak
 
G                    Am
Minsan, pinalalampas ko na lang
            Bm
kahit nasasaktan
         C
paano na lang
 
(Bass)        Em             Am
Ayoko na nag away at nakakailang
                Em
nakakapagod na usapan
                C
wala rin pupuntahan
 
 
Refrain:
 
G
Sana naman
         Am
maibalik ang nakaraan
          Bm
at ng matutunan
               C
na huwag kang iwanan.
 
G
Sana naman
         Am
maibalik ang nakaraan
             Bm
ng di s'ya masayang
         Chold
at sana ako'y pakinggan.

VERSE TWO:
PAREHAS LNG NG CHORDS

G               Am
Heto, binabalewala mo lang ako
         Bm
nagmamakaawa
              C
ako'y nagpapaunawa

G                Am 
Pero kahit na ang labo mo
            Bm
aking papatunayan
             C
na tanging ikaw lang
 
 
PAG PAALIS NA
G - Am - Bm - C
sana..(sana naman...)
sana..(sana naman...)
sana naman..
sana..
 
sana.. (sana naman...)
ohhh.. sana.. (sana naman...)
sana naman..
Sana.

TAPOS BABANAT KA NG 
C
UN NAH!

sana po this time eh tama na...
thanks ulit francis!
pag may nasilip ulit kaung mali...
wag magsawang sitahin ako..
"hi revned"! i like you... hihihi

HOPE YOU LIKE THESE
KUNG MAY MALI PO PAKI TAMA AT ISEND SA EMAIL KO...
mcrivera_10@yahoo.com
Comments