Session Road - Sana Naman Chords & Tabs

 

Sana Naman Chords & Tabs

Session Road Chords & Tabs

Version: 1 Type: Tab 0 ratings
1 star 2 stars 3 stars 4 stars 5 stars
comments

Sana Naman Tab

   
   ---Updated----
 
 Title: Sana Naman
 Artist: SessiOn Road
 Album: Suntok sa Buwan
 Track no.: 11
 Elapsed Time: 3:57
 Transcribed By: Allan John G. Amisola
 E-mail add: kogure_18spider@yahoo.com
 Date/Time: Sat, 7 May 2005 02:09:56
 Updated: Last Saturday, September 26, 2005  7:10 pm
 
 
          This is my first tab and I'm proudly dedicating this piece to my one and
  only baby - *****...
 
 
 [Standard Tuning] eBGDAE
 [Recommended chords]
 
             G         Am        Bm        C         Em       D/F#
        e|---3---| |---0---| |---2---| |---0---| |---0---| |---0---|
        B|---3---| |---1---| |---3---| |---1---| |---0---| |---3---|
        G|---0---| |---2---| |---4---| |---0---| |---0---| |---2---|
        D|---0---| |---2---| |---4---| |---2---| |---2---| |---0---|
        A|---2---| |---0---| |---2---| |---3---| |---2---| |---x---|
        E|---3---| |---x---| |---x---| |---x---| |---0---| |---2---|
        
 
 [Intro]
        
        Guitar 1;
              G             D/F#          Am            C
        e|---3333--3333----0000--0000----0000--0000----0000--0000---|
        B|----3333--3333----3333--3333----1111--1111----1111--1111---|
        G|----0000--3333----2222--2222----2222--2222----0000--0000---|
        D|----0000--0000----0000--0000----2222--2222----2222--2222---|
        A|----2222--2222----xxxx--xxxx----0000--0000----3333--3333---|
        E|----3333--3333----2222--2222-------------------------------|
 
 
        Guitar 2;
 
 e|------5---------5-----|-------7---------7-----|-------10---------10-----|-------7---------7----|
 B|--7-8---8---7-8---8---|---7-8---8---7-8---8---|---7-8----8---7-8----8---|---7-8---8---7-8---8--|
 G|----------------------|-----------------------|-------------------------|----------------------|
 D|----------------------|-----------------------|-------------------------|----------------------|
 A|----------------------|-----------------------|-------------------------|----------------------|
 E|----------------------|-----------------------|-------------------------|----------------------|
 
 
  [Verse 1]
        (take note of the strumming in these verses)
 
  G               D/F#
  Heto, nag aaway na naman tayo
          Am           C
  namomroblema, napapaiyak
 
  G                    D/F#
  Minsan, pinalalampas ko na lang
              Am
  kahit nasasaktan
           C
  paano na lang
 
 
  [Verse before refrain]
        (Guitar 2 will do this bass at the beginning)
[ Tab from: http://www.guitartabs.cc/tabs/s/session_road/sana_naman_tab.html ]
 
        A--------------------2----|
        E---3-3-5-7-5-3-5-0-------|
 
  (Bass)        Em             Am
  Ayoko na nag away at nakakailang
                  Em
  nakakapagod na usapan
                  C
  wala rin pupuntahan
 
 
  [Refrain]
        guitar 2 -riff/continous strumming from 1st string upward
     
         G             Am             Bm             C
   e|----3---------|---5----------|---7----------|---8-----------|
   B|----3---------|---5----------|---7----------|---5-----------|
   G|----4---------|---5----------|---7----------|---5-----------|
   D|--------------|--------------|--------------|---------------|
   A|--------------|--------------|--------------|---------------|
   E|--------------|--------------|--------------|---------------|
 
  G
  Sana naman
           Am
  maibalik ang nakaraan
            Bm
  at ng matutunan
                 C
  na huwag kang iwanan.
 
  G
  Sana naman
           Am
  maibalik ang nakaraan
               Bm
  ng di s'ya masayang
           Chold
  at sana ako'y pakinggan.
 
 
  [Verse 2]
        (Guitar 1 will do the strumming while guitar 2 will play these
             riffs:)
 
        guitar 2 -riff 1
         G             D/F#           Am             C
   e|--------------|----------5---|----------7---|---------------|
   B|----------8---|--------------|--------------|---------8-----|
   G|----4-5-7-----|---4-5-7------|---4-5-7------|---4-5-7-------|
   D|--------------|--------------|--------------|---------------|
   A|--------------|--------------|--------------|---------------|
   E|--------------|--------------|--------------|---------------|
 
   G               D/F#
  Heto, binabalewala mo lang ako
           Am
  nagmamakaawa
                C  
  ako'y nagpapaunawa
 
 
          guitar 2 -riff 2
 
 e|------5---------5-----|-------7---------7-----|-------10---------10-----|-------7---------7----|
 B|--7-8---8---7-8---8---|---7-8---8---7-8---8---|---7-8----8---7-8----8---|---7-8---8---7-8---8--|
 G|----------------------|-----------------------|-------------------------|----------------------|
 D|----------------------|-----------------------|-------------------------|----------------------|
 A|----------------------|-----------------------|-------------------------|----------------------|
 E|----------------------|-----------------------|-------------------------|----------------------|
 
  G                D/F# 
  Pero kahit na ang labo mo
              Am
  aking papatunayan
               C
  na tanging ikaw lang
 
 
  [Outro]
        guitar 2 -riff/continous strumming from 1st string upward
         
         G             Am             Bm             C
   e|----3---------|---5----------|---7----------|---8-----------|
   B|----3---------|---5----------|---7----------|---5-----------|
   G|----4---------|---5----------|---7----------|---5-----------|
   D|--------------|--------------|--------------|---------------|
   A|--------------|--------------|--------------|---------------|
   E|--------------|--------------|--------------|---------------|
 
  G-Am-Bm-C (continous)
  sana..(sana naman...)
  sana..(sana naman...)
  sana naman..
  sana..
 
  sana.. (sana naman...)
  ohhh.. sana.. (sana naman...)
  sana naman..
  Sana.
 
   (End with C)
 
 
        All Rights Reserved
           Copyright 2005
            All Tabs made by Allan John G. Amisola 
               Law prohibits all public performances and illegal disclaimers of 
                   this tab and has a specific punishment.


  #----------------------------------PLEASE NOTE---------------------------------#
  #This file is the author's own work and represents their interpretation of the #
  #song. You may only use this file for private study, scholarship, or research. #
  #------------------------------------------------------------------------------#
Comments