Session Road - Leaving You Chords & Tabs

 

Leaving You Chords & Tabs

Session Road Chords & Tabs

Version: 7 Type: Tab 0 ratings
1 star 2 stars 3 stars 4 stars 5 stars
comments

Leaving You Tab

   
Title: Leaving you
Artist/Band:Session road
Album: Suntok sa buwan
Date: 05/18/05
Tabbed by:Jason Gandionco

Intro/verse:Guitar 1
E|-0-0-0-0-0-0-0-|
b|-x-x-x-x-x-x-x-|
g|-9-9-9-9-9-8-9-|
d|-9-9-9-9-9-9-9-|
a|-7-7-7-7-7-7-7-|
E|-x-x-x-x-x-x-x-|

Intro/verse: Guitar 2
E|-------------------------------------|
b|-------------------------------------|
g|-------------------------------------|
d|-9-9-9-9-9-9-9-9-9-8/9-9-9-9-9-9-9---|
a|-------------------------------------|
e|-------------------------------------|

Intro/verse:Guitar 1
E|-0-0-0-0-0-0-0-|
b|-x-x-x-x-x-x-x-|
g|-9-9-9-9-9-8-9-|
d|-9-9-9-9-9-9-9-|
a|-7-7-7-7-7-7-7-|
E|-x-x-x-x-x-x-x-|

Intro/verse:Guitar 2

E|---------------------------------------------------------------------|
b|-9-9-9-9-9-9-9/10-10-10-10-10-10-10/12-12-12-12-12-12-12-12-12-12-9~-|
g|---------------------------------------------------------------------|
d|---------------------------------------------------------------------|
a|---------------------------------------------------------------------|
e|---------------------------------------------------------------------|

Verse:Guitar 1
E|-0-0-
b|-0-2-
g|-1-2-
d|-2-2-
a|-2-0-
E|-0-0-

Verse:Guitar 2
E|-0-0-0-0-0-0-0-x-x-x--x--x--|
b|-x-x-x-x-x-x-x-9-9-10-10-10-|
g|-9-9-9-9-9-9-9-9-9-9--9--9--|
d|-9-9-9-9-9-9-9--------------|
a|-7-7-7-7-7-7-7--------------|
e|-x-x-x-x-x-x-x--------------|

Chorus:Guitar 1

E|-0-0-0-0-0-0-0-0-0-0-0-0-0-0-|
b|-0-0-0-0-0-0-0-2-2-2-2-2-2-2-|
g|-1-1-1-1-1-1-1-2-2-2-2-2-2-2-|
d|-2-2-2-2-2-2-2-2-2-2-2-2-2-2-|
a|-2-2-2-2-2-2-2-0-0-0-0-0-0-0-|
E|-0-0-0-0-0-0-0-0-0-0-0-0-0-0-|
Chorus:Guitar 2

E|------------------------------------------------|
b|------------------------------------------------|
g|-9-9-9-9-9-9-9-9-9-9-9-9------------------------|
d|--------------------------9-9-9-9-9-9-9-9-9-9---|
a|------------------------------------------------|
e|------------------------------------------------|

Guitar 2
E|---------------------------------------------------------------------|
b|-9-9-9-9-9-9-9/10-10-10-10-10-10-10/12-12-12-12-12-12-12-12-12-12-9~-|
g|---------------------------------------------------------------------|
d|---------------------------------------------------------------------|
a|---------------------------------------------------------------------|
e|---------------------------------------------------------------------|

E|-0-0-0-0-0-0-0-0-0-0-0-0-0~
b|-0-0-0-0-0-0-0-0-0-0-0-0-0~
g|-1-1-1-1-1-1-1-1-1-1-1-1-1~
d|-2-2-4p2-2-4p2-2-4p2-2-4-2~
a|-2-2-2-2-2-2-2-2-2-2-2-2-2~
E|-0-0-0-0-0-0-0-0-0-0-0-0-0~

2nd Verse:Guitar 1
E|-0-0-
b|-0-2-
g|-1-2-
d|-2-2-
a|-2-0-
E|-0-0-
[ Tab from: http://www.guitartabs.cc/tabs/s/session_road/leaving_you_tab_ver_7.html ]
2nd Verse:Guitar 2
E|-0-0-0-0-0-0-0-x-x-x--x--x--|
b|-x-x-x-x-x-x-x-9-9-10-10-10-|
g|-9-9-9-9-9-9-9-9-9-9--9--9--|
d|-9-9-9-9-9-9-9--------------|
a|-7-7-7-7-7-7-7--------------|
e|-x-x-x-x-x-x-x--------------|
Then: Guitar 2
E|-------------------------------------|
b|-------------------------------------|
g|-7-7/9\7-5-7-7-----------------------|
d|-x-x/x\x-x-x-x
a|-5-5/7\5-3-5-5
e|-x-x/x\x-x-x-x

E|-------------------------------------|
b|-------------------------------------|
g|-7-7/9\7-5-14-12-10-12---------------|
d|-x-x/x\x-x-x--x--x---x---------------|
a|-5-5/7\5-3-12-10-8--10---------------|
e|-x-x/x\x-x-x--x--x--x----------------|

Repeat Chorus: Guitar 1 @ 2

E|-0-0---0-0-|
b|-0-0---2-2-|
g|-1-1---2-2-|
d|-2-2---2-2-|
a|-2-2---0-0-|
e|-0-0---0-0-|

Solo:
e|--------------------------------------------------------------------------|
b|-------------------------------------------------------12s14p12-----------|
g|---------13-14-13b----13-14h16p14-13----13-14-13----13----------13b-------|
D|--12s14b-----------14----------------14----------14-----------------------|
A|--------------------------------------------------------------------------|
E|--------------------------------------------------------------------------|

e|---------------------------------------------------------------------------|
b|--------------------14-17-------------------14-17--------------------14-17-|
g|--------13-14-13----------------13-14-13-----------------13-14-13----------|
D|--14-16----------16-------14-16----------16--------14-16----------16-------|
A|---------------------------------------------------------------------------|
E|---------------------------------------------------------------------------|

e|--------------------------------------------------------------------------|
b|--------------------14-17-16----------------------------------------------|
g|--------13-14-13----------------------------------------------------------|
D|--14-16----------16-------------------------------------------------------|
A|--------------------------------------------------------------------------|
E|--------------------------------------------------------------------------|

Repeat Chorus

Then:Guitar 1
E|-0-0-0-0-0-0-0-0-0-0-0-0-0-0-|
b|-0-0-0-0-0-0-0-2-2-2-2-2-2-2-|
g|-1-1-1-1-1-1-1-2-2-2-2-2-2-2-|
d|-2-2-2-2-2-2-2-2-2-2-2-2-2-2-|
a|-2-2-2-2-2-2-2-0-0-0-0-0-0-0-|
E|-0-0-0-0-0-0-0-0-0-0-0-0-0-0-|
Guitar 2
E|-------------------------------------|
b|-------------------------------------|
g|-9/11-11-11--9-9---------------------|
d|-x/x--x--x---x-x---------------------|
a|-7/9--9--9---7-7---------------------|
e|-x/x--x--x---x-x---------------------|

E|-------------------------------------|
b|-------------------------------------|
g|-4-6-8-9-----------------------------|
d|-x-x-x-x
a|-2-4-6-7
E|-x-x-x-x

E|-------------------------------------|
b|-------------------------------------|
g|-9/11-11-11--------------------------|
d|-x/x--x--x---------------------------|(3x)
a|-7/9--9--9---------------------------|
e|-x/x--x--x---------------------------|
Then
E|--------0~
b|--------0~
g|-16-13--9~
d|-x--x---9~
a|-14-11--7~
e|-x--x---x~

End
comments @ suggestions e mail mo ko gandionco_jason_47@yahoo.com o kya txt mo ko 09196887443
Comments