Session Road - Leaving You Chords & Tabs

 

Leaving You Chords & Tabs

Session Road Chords & Tabs

Version: 5 Type: Tab 0 ratings
1 star 2 stars 3 stars 4 stars 5 stars
comments

Leaving You Tab

Song: Leaving You
Artist/Band: Session Road
Album: Suntok Sa Buwan
Submitted by: bogey

E|-----4-5-4-----4-5s7-5-4----4-5-4-----4-7s9-7-5----|
B|---5-------5-5------------5-------5-5--------------|
G|---------------------------------------------------|
D|---------------------------------------------------|
A|---------------------------------------------------|
E|---------------------------------------------------|
[ Tab from: http://www.guitartabs.cc/tabs/s/session_road/leaving_you_tab_ver_5.html ]
E|----------------9-12-----------------9-12-----------------9-12----|
B|---5-7-9-10-9-7---------5-7-9-10-9-7---------5-7-9-10-9-7---------|
G|------------------------------------------------------------------|
D|------------------------------------------------------------------|
A|------------------------------------------------------------------|
E|------------------------------------------------------------------|

E|----------------9-12-11----|
B|---5-7-9-10-9-7------------|
G|---------------------------|
D|---------------------------|
A|---------------------------|
E|---------------------------|


Whew! Ganyan lang kadali yan...
Comments