Session Road - Leaving You Chords & Tabs

 

Leaving You Chords & Tabs

Session Road Chords & Tabs

Version: 3 Type: Tab 0 ratings
1 star 2 stars 3 stars 4 stars 5 stars
comments

Leaving You Tab

e|----------------------------------------|
B|----11--12--11--------11--12-12s14-12-11|
G|--12------------12-12-------------------|
D|----------------------------------------|
A|----------------------------------------|
E|----------------------------------------|
[ Tab from: http://www.guitartabs.cc/tabs/s/session_road/leaving_you_tab_ver_3.html ]
e|----------------------------------------|
B|----11--12--11--------11--13-13s15-13-12|
G|--12------------12-12-------------------|
D|----------------------------------------|
A|----------------------------------------|
E|----------------------------------------|

e|------------------10--12|-
B|----9-11-12-11-9--------| -
G|-11---------------------|  -
D|------------------------|  -    3X
A|------------------------| -
E|------------------------|-

e|------------------10--12--11|
B|----9-11-12-11-9------------| 
G|-11-------------------------|  
D|----------------------------|  
A|----------------------------| 
E|----------------------------|


yEAH!!!!!!!! =p
Comments