Session Road - Leaving You Chords & Tabs

 

Leaving You Chords & Tabs

Session Road Chords & Tabs

Version: 1 Type: Tab 0 ratings
1 star 2 stars 3 stars 4 stars 5 stars
comments

Leaving You Tab

LEAVING YOU
SESSION ROAD
by miTcHiE

Ginawa ko na ung chords nito, ndi ko lang natapos ung 
adlib part kaya ito na! Gawin niyo 'to after ng Chorus 2.
Tingnan niyo na lang muna ung chords na ginawa ko so
you'll know!

e|----6--7--6-----------6--7--9--7--6--|
B|-7--------------7--7-----------------|
G|-------------------------------------|
D|-------------------------------------|
A|-------------------------------------|
E|-------------------------------------|

[ Tab from: http://www.guitartabs.cc/tabs/s/session_road/leaving_you_tab.html ]
e|----6--7--6-----------6--7--9slide to 7--6--|
B|-7--------------7--7------------------------|
G|--------------------------------------------|
D|--------------------------------------------|
A|--------------------------------------------|
E|--------------------------------------------|


e|-------6--7--6-----7slide to 9--|
B|-7--7-----------7---------------|
G|--------------------------------| (4x)
D|--------------------------------|
A|--------------------------------|
E|--------------------------------|
Comments