Session Road - Leaving You Chords & Tabs

 

Leaving You Chords & Tabs

Session Road Chords & Tabs

Version: 3 Type: Chords 0 ratings
1 star 2 stars 3 stars 4 stars 5 stars
comments

Leaving You Chords

   
SESSION ROAD
LEAVING YOU

INTRO: E-F#m-E/G#-A..(2x)

VERSE 1:
EM7                               A
I'm watching me make a fool of myself

Silently speaking my wish to be free
E
Turning my world inside out
A
Spin my emotions building my doubt

EM7                                  A
I fed on this strangeness plain and true

But there was nothing beneath it I knew
EM7                                 
I see myself falling from grace
A
My life fading without grace

CHORUS:
E            F#m            E/G#            |
I'm tired of waiting here for you           |  
      A                              E      |   2x
Can't waste my time, I'm leaving you        |   

E            F#m-E/G# 
I'm tired of waiting here...
   A
Waiting here for you

VERSE 2: ( do chords of verse 1)
[ Tab from: http://www.guitartabs.cc/tabs/s/session_road/leaving_you_crd_ver_3.html ]
I'm watching me make a fool of myself
Silently speaking my wish to be free
Turning my world inside out
Spin my emotions building my doubt

And now that you've taken the world out of me
I'm left with my body hanging free
As lovers come and comfort me
I'm still left with my misery

REPEAT CHORUS

ADLIB
e|----6--7--6-----------6-7s9---7--6--|
B|-7--------------7--7-----------------|
G|-------------------------------------|
D|-------------------------------------|
A|-------------------------------------|
E|-------------------------------------|

e|----6--7--6-----------6--77s9---7--6-------|
B|-7--------------7--7------------------------|
G|--------------------------------------------|
D|--------------------------------------------|
A|--------------------------------------------|
E|--------------------------------------------|


e|-------6--7--6-----7s9---7------|
B|-7--7-----------7---------------|
G|--------------------------------| (4x)
D|--------------------------------|
A|--------------------------------|
E|--------------------------------|


REPEAT CHORUS

E     F#m     E/G#m-A
I'm leaving you....
E     F#m     E/G#m-A
I'm leaving you....
Comments