Session Road - Cool Off Chords & Tabs

 

Cool Off Chords & Tabs

Session Road Chords & Tabs

Version: 2 Type: Tab 0 ratings
1 star 2 stars 3 stars 4 stars 5 stars
comments

Cool Off Tab

   
Helow sa mga Barkda ko! mga astig tyo ! hehehe! helow din Sa beybi Ko! i love you  so mUch!

artist: Session road
song: Cool off
Tabbed by: Jc da Pogi

standard tuning

Intro:B -- A#m - G#m - F#m -- E - F#m - G#m -- A#m - B 
E||--------------------------------------------------------------||              
B||--------------------------------------------------------------||	    
G||--------------------------------------------------------------||	    		
D||--------------------------------------------------------------||
A||---55-x-x-x-x-x-55-x-x-55-------------------------------------||
E||------------------------------99--77-x-x-x-x-x-77-------------||

E||--------------------------------------------------------------||	
B||--------------------------------------------------------------||
G||--------------------------------------------------------------||
D||--------------------------------------------------------------||
A||--------------------------------------------------------------||
E||-x-x-77--55--33-x-x-x-x-x-33-x-x------------------------------||
                                                     
E||--------------------------------------------------------------||
B||--------------------------------------------------------------||
G||--------------------------------------------------------------||
D||--------------------------------------------------------------||
A||--------------------------------------------------------------||
E||--33--55--77-x-x-x-x-x-77-x-x---------------------------------||

E||--------------------------------------------------------------||
B||--------------------------------------------------------------||
G||--------------------------------------------------------------||
D||--------------------------------------------------------------||
A||----------55--------------------------------------------------||
E||--77--99------------------------------------------------------||

(verse 1)
[ Tab from: http://www.guitartabs.cc/tabs/s/session_road/cool_off_tab_ver_2.html ]
E||--------------------------------------------------------------||              
B||--------------------------------------------------------------||	    
G||--------------------------------------------------------------||	    		
D||--------------------------------------------------------------||
A||---55-x-x-x-x-x-55-x-x-55-------------------------------------||
E||------------------------------99--77-x-x-x-x-x-77-------------||

E||--------------------------------------------------------------||	
B||--------------------------------------------------------------||
G||--------------------------------------------------------------||
D||--------------------------------------------------------------||
A||--------------------------------------------------------------||
E||-x-x-77--55--33-x-x-x-x-x-33-x-x-x-x--------------------------||
                                                     
E||-----------------------77-99-11-11-12-12----------------------||
B||----------------------------------------12--------------------||
G||--------------------------------------------------------------||
D||--------------------------------------------------------------||
A||--------------------------------------------------------------||
E||--33--55--77-x-x-x-x-x----------------------------------------||

(repeat intro)


ayoko na munang makita ka
ayoko na munang makasama ka
gusto ko sanang mapag isa
`di  na yata tayo masya
`di na yata kakayanin pa
gusto ko munang mapag isa

[refrain]

C#m               D#, E
siguro`y ito na nga
C#m           D# E
intindihin mo na
    C#m               B           A
kailangan lang natin ng pahinga

[chorus]
E         G#m         Dm
palayain ang isa`t isa
        B                 E
kung tayo, tayo talaga (2x)


ayoko na munang lapitan ka
ayoko na munang maka usap ka
gusto sanang mapag isa
`di na tayo mag kasundo
sumisikip na ang ating mundo
time out muna tayo

[Repeat Refrain]
[Repeat Chorus]


Senxa Na SA taB Kong WAlng Kwenta! Heheheh! Kyo Nlng Bhalng MgpASenxa! Peace OuT!! WakekeK!
Comments