Servant - Orchestra Chords & Tabs

 

Orchestra Chords & Tabs

Servant Chords & Tabs

Version: 2 Type: Tab 0 ratings
1 star 2 stars 3 stars 4 stars 5 stars
comments

Orchestra Tab

   
Orchestra -  The Servant    

[TAB 1]
      Asus4                    Asus4add9-               D7sus2
 E||------------------------|------------------------|--------------------|
 B||--------3--------3------|--------3--------3------|--------3--------3--|
 G||-----2--------2---------|-----2--------2---------|-----2--------2-----|
 D||--0--------0------------|------------------------|--------------------|
 A||------------------------|--1--------1------------|--3--------3--------|
 E||------------------------|------------------------|--------------------|
  Asus4                    Asus4add9-               A7sus4
 ------------------------|------------------------|------------------------|
 --------3--------3------|--------3--------3------|--------3--------3------|
 -----2--------2---------|-----2--------2---------|-----0--------0---------|
 ------------------------|------------------------|------------------------|
 --0--------0------------|--1--------1------------|------------------------|
 ------------------------|------------------------|--3--------3------------|
      Asus4                 Aadd11
 ------------------------|------------------------|
 -----3--------3---------|-----2--------2---------|
 --------2--------2------|--------2--------2------|
 ------------------------|------------------------|
 --0--------0------------|--0--------0------------|
 ------------------------|------------------------|
 ************************************************************************
 [TAB 2]
    G                       Bm
 |--3------3----3--3--3--|--2------2----2--2--2--|
 |--0------0----0--0--0--|--3------3----3--3--3--|
 |--0------0----0--0--0--|--4------4----4--4--4--|
 |--0------0----0--0--0--|--4------4----4--4--4--|
 |--2--------------------|--2--------------------|
 |--3--------------------|-----------------------|

    G                       Bm
 |--3------3----3--3--3--|--2------2----2--2--2--|
 |--0------0----0--0--0--|--3------3----3--3--3--|
 |--0------0----0--0--0--|--4------4----4--4--4--|
 |--0------0----0--0--0--|--4------4----4--4--4--|
 |--2--------------------|--2--------------------|
 |--3--------------------|-----------------------|
[ Tab from: http://www.guitartabs.cc/tabs/s/servant/orchestra_tab_ver_2.html ]
    G                       Bm                      Dm
 |--3------3----3--3--3--|--2------2----2--2--2--|--1------1----1--1--1--|
 |--0------0----0--0--0--|--3------3----3--3--3--|--3------3----3--3--3--|
 |--0------0----0--0--0--|--4------4----4--4--4--|--2------2----2--2--2--|
 |--0------0----0--0--0--|--4------4----4--4--4--|--0------0----0--0--0--|
 |--2--------------------|--2--------------------|-----------------------|
 |--3--------------------|-----------------------|-----------------------|

    Bm
 |--2------2----2--2--2--|-----------------------|-----------------------|
 |--3------3----3--3--3--|-----------------------|-----------------------|
 |--4------4----4--4--4--|-----------------------|-----------------------|
 |--4------4----4--4--4--|--6----6----6----6--6--|--0----0----0----0--0--|
 |--2--------------------|--5----5----5----5--5--|--2----2----2----2--2--|
 |-----------------------|--4----4----4----4--4--|--3----3----3----3--3--|

    F
 |--1----------------|
 |--1----------------|
 |--2----------------|
 |--3----------------|
 |--3----------------|
 |--1----------------|

 ************************************************************************

 [TAB 1] (x4)
        Asus4...
 Here I am

 A young man

 Come and get me if you can

 Up in my room covered in flames
 Meet me at the cinema
 You can take me in your car
 I'll lie in the back and stare at the planes
 There's an orchestra in me
 Playing endlessly
 I even hear it now
 They play in the devil's key
 An endless symphony
 I even hear it now

 [TAB 2]
       G
 And I listen to the music
 Bm...
 Beautiful music
 Yes I listen to the music
                  ...F
 Beautiful music


 [TAB 1] (x4)
 Here I am
 A young man
 You can roll me in your hand
 Throw me up high into the air
 I wandered on
 Ripped and torn
 A samurai in a storm
 Over the sand into the glare
 Because there's an orchestra in me
 Playing endlessly
 I even hear it now
 They play in the devil's key
 An endless symphony
 I even hear it now
 [TAB 2]
 And I listen to the music
 Beautiful music
 Yes I listen to the music
 Beautiful music

 [TAB 1] (x4)
 Here I am
 A young man
 A crashing computer program
 Here is a pen
 Write out my name
 There's an orchestra in me
 Playing endlessly
 I even hear it now
 They play in the devil's key
 An endless symphony
 I even hear it now
 [TAB 2] (x2)
 And I listen to the music
 Beautiful music
 Oh I listen to the music
 Beautiful music
 Yes I listen to the music
 Beautiful music
 Yes I listen to the music
 Beautiful music

 

Tab: Fredo Sureau Trascrizione: #gioasis#
Comments