Servant - Orchestra Chords & Tabs

 

Orchestra Chords & Tabs

Servant Chords & Tabs

Version: 1 Type: Tab 0 ratings
1 star 2 stars 3 stars 4 stars 5 stars
comments

Orchestra Tab

   
-----------------------------------------------------------------------------
			     Orchestra - The Servant
-----------------------------------------------------------------------------


Tuning: half step down on all strings

Intro/Verse/Chorus
e|-------------------------------------------------------------------|
B|--------4-----4----------4----------4------------4--------4--------|
G|-----3------3---------3---------3------------3---------3-----------|
D|--1------1---------------------------------------------------------|
A|----------------2-----------2-----------4-----------4--------------|
E|-------------------------------------------------------------------|
[ Tab from: http://www.guitartabs.cc/tabs/s/servant/orchestra_tab.html ]
e|-------------------------------------------------------------------|
B|--------4---------4------------4----------4-----------4--------4---|
G|-----3----------3-----------3-----------3----------3--------3------|
D|-------------------------------------------------------------------|
A|--1----------1----------2----------2-------------------------------|
E|----------------------------------------------4---------4----------|

e|--------------------------------------------------------------------|
B|----4----------4--------------3-----------3-------------------------|
G|------3-----------3--------------3-----------3----------------------|
D|--------------------------------------------------------------------|
A|-1----------1------------1------------1-----------------------------|
E|--------------------------------------------------------------------|

If you want the chords to go with it here, they are:

Emb                 B                C#          A#m
(6,6,8,8,7,6)  (7,9,9,8,7,7) (9,12,12,10,9)  (6,8,8,6,6,6)

B                  G#m            A#
(7,9,9,8,7,7)   (4,6,6,4,4,4)   (6,8,8,7,6,6)

There you go!
enjoy. this is one of the best songs ever.
Comments