Serial Joe - What I See Chords & Tabs

 

What I See Chords & Tabs

Serial Joe Chords & Tabs

Version: 2 Type: Tab 0 ratings
1 star 2 stars 3 stars 4 stars 5 stars
comments

What I See Tab

   
Serial Joe,
What I see

Standard tuning
- figure out strum patterns on your own

Intro/verse
e|------------------------|------------------------|
B|------------------------|------------------------|
G|------------------------|-7----7----7----7----7--|
D|-----0-00-0------0-00-0-|-7----7----7----7----7--|
A|----0-0--0-0----0-0--0-0|-5----5----5----5----5--|
E|-0h2---------2h3--------|------------------------|
(repeat)

Lead up to chorus- palm muted
e|--------------------------------|
B|--------------------------------|
G|--------------------------------|
D|-4-4-4-4-4-4-4-4-5-5-5-5-5-5-5-5|
A|-4-4-4-4-4-4-4-4-5-5-5-5-5-5-5-5|
E|-2-2-2-2-2-2-2-2-3-3-3-3-3-3-3-3|

Chorus
e|------------------|------------------|
B|------------------|------------------|
G|-7---------4----3-|-7---------4------|
D|-7----7----4----3-|-7----7----4----5-|
A|-5----7----2----1-|-5----7----2----5-|
E|------5-----------|------5---------3-|
[ Tab from: http://www.guitartabs.cc/tabs/s/serial_joe/what_i_see_tab_ver_2.html ]
Bridge?
e|-------------------------|
B|-------------------------|
G|-------6------7----------|
D|---4-4-6----4-7--2-2-5-4-|
A|---4-4-4----4-5--2-2-5-4-|
E|-0h2-2----0h2----0-0-3-2-|
(repeat)

Lyrics

She walks around aimlessly in the night 
Desperately searching - for what she thinks is right
Promises made... but always broken 
Words as thoughts but never spoken 
Life and times that could have been 
And stories left untold 

I can hear you cry 
I can feel you sigh
Touched my soul today 
Now kiss the pain goodbye 

Sidesteps feelings that come her way 
Thinking she can make it through another day 
The fear of falling makes her shiver 
Afraid to accept the feeling it gives her
If only she could see what I see 
The fire that burns inside 

I can hear you cry 
I can feel you sigh 
You touched my soul today 
Now kiss the pain goodbye 

I can hear you cry 
I can feel you sigh 
You touched my soul today 
Now kiss the pain goodbye 

I can hear you cry 
I can feel you sigh 
You touched my soul today 
Now kiss the pain goodbye 

Now kiss the pain goodbye 

Now kiss the pain goodbye 

Now kiss the pain goodbye
Comments