Serial Joe - What I See Chords & Tabs

 

What I See Chords & Tabs

Serial Joe Chords & Tabs

Version: 1 Type: Bass Tab 0 ratings
1 star 2 stars 3 stars 4 stars 5 stars
comments

What I See Bass Tab

Artist: Serial Joe
Song: What I See
Tabber: Peter (Medic123@bolt.com)

Regular tuning if you will

Just for fun Im going to put this in. It's not in the song. But it's
the guitar's main riff but semi fun to play on the bass.

|-------0---0---0-0---------0---0---0-0---|
|-----0-------------0-----0-------------0-|
|-0h2-----2---2-------0h3-----3---3-------|
|-----------------------------------------|
[ Tab from: http://www.guitartabs.cc/tabs/s/serial_joe/what_i_see_btab.html ]
Verse
|---------------------------------|
|---------------------------------|
|-5-5-5-5-5-5-5-5-5-5-5-5-5-5-5-5-|
|---------------------------------|

Pre Chorus
|-----------------|
|-----------------|
|-----------------|
|-0-0-0-3-0-0-0-4-|

Chorus
|---------------------------------|
|---------------------------------|
|-5-5-5-5---------4-4-4-4-3-3-3-3-|
|---------4-4-4-4-----------------|

Semi Nothing Crappy Solo
|----------------|
|----------------|
|------2-------2-|
|0-2-3---0-2-3---|

Comments