Serial Joe - Unintended Chords & Tabs

 

Unintended Chords & Tabs

Serial Joe Chords & Tabs

Version: 1 Type: Tab 0 ratings
1 star 2 stars 3 stars 4 stars 5 stars
comments

Unintended Tab

   
Song - unintened 
Band  - serial Joe
tabbed by insane_guitarist69@hotmail.com
This song is really cool There are two guitars in it which make it sound asome now i did this all by ear and its perfectly right the tuning for both guitars are both standard . If you have anyproblems with this song email me ok so enjoy 

Guitar - 1 with distortion 
E--------------------------------------  
A--------------------------------------   
D--------------------------------------
G--2222222222222222--77777777--66666666
B--2222222222222222--77777777--66666666
E--0000000000000000--55555555--44444444

Guitar - 2 with distortion
play this 4x                                                                
E-------------------------------------------
A-------------------------------------------
D--9-11-11-11-9-11-11-11-9-11-11-11-9-8-9---
G-------------------------------------------
B--7-9--9--9--7-9--9--9--7--9--9--9--7-6-7--
E-------------------------------------------
[ Tab from: http://www.guitartabs.cc/tabs/s/serial_joe/unintended_tab.html ]
Then 
E----------------------------------            
A----------------------------------                        
D--9-11-11-11-9-11-11-11--9-8------             
G----------------------------------                       
B--7-9--9---9-7-9--9---9--7-6------ 
E----------------------------------              
                                                                                                                                Guitar 2 - clean - play this 2x   
E-------------------------------------------------
A-------------------------------------------------          
D--9-11-11-11-11-9-11-11-11-11-------------------- 
G------------------------------7-7-7-7-7-6-6-6-6-6         
B--7-9--9--9--9--7-9--9--9--9--7-7-7-7-7-6-6-6-6-6 
E------------------------------5-5-5-5-5-4-4-4-4-4

Guitar 1-distortion- play this 2x
E------------------------------------------
A------------------------------------------
D------------------------------------------               
G--7-7-7-7-2-2-2-2-4-4-4-4-4-6-6-6-6-------                
B--7-7-7-7-2-2-2-2-4-4-4-4-4-6-6-6-6-------                 
E--5-5-5-5-0-0-0-0-2-2-2-2-2-4-4-4-4-------

Guitar 2 - distortion - play this 2x
E-------------------------------------------
A-------------------------------------------                
D-9-11-11-11-9-11-11-11-6-6-6-6-8-8-8-8-9-9-
G-------------------------------------------                
B--7-9--9--9-7--9--9--9-6-4-4-4-6-6-6-6-7-7-
E-------------------------------------------

Here is the little solo 
E------------------------------------------
A------------------------------------------                 
D--9-8-9-9-11-11-11-11-9-11-11-11-11-9-8-9- 
G------------------------------------------                 
B--7-6-7-7-9--9--9--9--7-9--9--9--9--7-6-7-   
E------------------------------------------

then right at the end it goes 
E-----------
A-----------
D-----------
G--7-7--0-7-
B--7-7--0-7-
E--5-5--0-5-

Well that was it ,there are chorus parts in there so just listen to the song for them . 
keep rockin and peace out . insane_guitarist69@hotmail.com
Comments