Serial Joe - Silently Screaming Chords & Tabs

 

Silently Screaming Chords & Tabs

Serial Joe Chords & Tabs

Version: 2 Type: Bass Tab 0 ratings
1 star 2 stars 3 stars 4 stars 5 stars
comments

Silently Screaming Bass Tab

Artist: Serial Joe
Song: Silently Screaming
Tabber: Peter (medic123@bolt.com)

Regular tuning if you please.

Verse
|-----------------|---------------|
|-----------------|---------------|
|-----5-3-----5-3-|---------------|
|-3-3-----3-3-----|-3-3-5-3-3-3-5-|
[ Tab from: http://www.guitartabs.cc/tabs/s/serial_joe/silently_screaming_btab_ver_2.html ]
Thingy
|-----------------|
|-----------------|
|-----------------|
|-8-8-8-8-9-9-9-9-|

Chorus                               Last Chorus do this
|---------------------------------|-----|
|---------------------------------|-----|
|---------------------------------|-8p6-|
|-0-0-0-0-9-9-9-9-5-5-5-5-5-5-5-5-|-----|

Pull off or no pull off whatever you think is good
Comments