Serial Joe - Promises Chords & Tabs

 

Promises Chords & Tabs

Serial Joe Chords & Tabs

Version: 1 Type: Bass Tab 0 ratings
1 star 2 stars 3 stars 4 stars 5 stars
comments

Promises Bass Tab

Song/CD:Promises
Band/Performed by: Serial joe
Tabbed by/date: Vick Garbugli/00/06/24
Tuning/others: standard



     Intro/verse variation
[ Tab from: http://www.guitartabs.cc/tabs/s/serial_joe/promises_btab.html ]
       G|--------------------------------------|
       D|--------------------------------------|
       A|------2--------2--*4*4----------------|
       E|---00--000-0-0--0------*4*-4-4-4------|
        
       Main Riff: 
       G|--------------------------------------|
       D|--------------------------------------|
       A|----2---------2---4-4-4-44------------|
       E|-00---000-0-0---0----------444-4-4----| 

   Chorus
       G|--------------------------------------|
       D|--------------------------------------|
       A|-------------------4-4-4-44-----------|
       E|-0-0-0-00000-0-0-----------444-4-4----| 
   
   during solo

       G|--4-44---------*4*-4-4/6---6--*8*---6----|
       D|-----------------------------------------|
       A|-------*2*--2----------------------------|
       E|-----------------------------------------| 

   












Comments