Serial Joe - Mistake Chords & Tabs

 

Mistake Chords & Tabs

Serial Joe Chords & Tabs

Version: 2 Type: Bass Tab 0 ratings
1 star 2 stars 3 stars 4 stars 5 stars
comments

Mistake Bass Tab

Serial Joe
Mistake

Tabbed By: Me (Sheila)
Tuning: Standard (EADGBE)
Contact: sheeshanugan@hotmail.com


Bass comes in with drums after the 2 line guitar intro.

Verses:

G------------------------------|
D------------------------------|
A------2-------2-4-4-4---------|
E--0-0---0-0-0---------4-4-4-4-|

Chorus:
[ Tab from: http://www.guitartabs.cc/tabs/s/serial_joe/mistake_btab_ver_2.html ]
G----------------------------------|
D----------------------------------|
A------------------4-4-4-4---------|
E--0-0-0-0--0-0-0-0--------4-4-4-4-|

Solo/Break:

G--4-4-4----4-4-4-4---4-4-4-4--6-6-6-6-8-8-6-6-6-|
D------------------------------------------------|
A---------2---------2----------------------------|
E------------------------------------------------|
Comments