Serial Joe - Dragon On My Shoulder Chords & Tabs

 

Dragon On My Shoulder Chords & Tabs

Serial Joe Chords & Tabs

Version: 1 Type: Tab 0 ratings
1 star 2 stars 3 stars 4 stars 5 stars
comments

Dragon On My Shoulder Tab

Artist: Serial Joe
   Song: Dragon on my Shoulder
   CD: Face Down(aquarius records)
   Tuning: Drop D

   This is the wicked instrumental from "Face Down", serial joe's new cd.
   It rocks.

   Riff#1
   e---------------------------
   B---------------------------
   G---------------------------
   D---------------------------
   A-0h1-x-x-0h1-0-1h2---------
   D-0h1-x-x-0h1-0-1h2---------

   Riff#2
   e---------------------|-------------------
   B---------------------|-------------------
   G--------------Repeat-|-----------------3-
   D--------------x3-then|-------------3-5---
   A---------3-----------|---------3-5-------
   D-0-0-5h7---5-0-4^----|-0-0-5h7-----------
[ Tab from: http://www.guitartabs.cc/tabs/s/serial_joe/dragon_on_my_shoulder_tab.html ]
   Riff#3
   e-----------------------------------
   B-----------------------------------
   G-----------------------------------
   D-------------------------------3p0-
   A-----3h5-3h5----------3h5-3h5------
   D-0-0---------0-3--0-0--------------

   Riff#4
   e--------------------------------------------
   B--------------------------------------------
   G--------------------------------------------
   D--------------------3^--------4^--------5^--
   A------3h5-7^----3h5-------3h5-------3h5-----
   D--0-0--------0-0-------0-0-------0-0--------

   SOrry, dont know the solo- but if you do, send it to me at
   jordanrocks99@hotmail.com

   Here's the layout!

   Riff#1- x10
   Riff#2- x4
   Riff#3- x4
   Riff#4- x2
   Riff#2- x2
   Riff#3- x4
   Riff#4- x2
   Guitar Solo
   Riff#2-(through the solo and x2 after)

   Thanx!
   If you have any questions, comments, or requests
   Email Jordan
   jordanrocks99@hotmail.com

   Jordan Legg
   Arnprior, ONT, CAN!
Comments