Serial Joe - Deep Chords & Tabs

 

Deep Chords & Tabs

Serial Joe Chords & Tabs

Version: 2 Type: Tab 0 ratings
1 star 2 stars 3 stars 4 stars 5 stars
comments

Deep Tab

T1: Ryan Schemenauer, fingereleven19@hotmail.com, Serial Joe, Deep, ???

S1: Drop D Tuning

Intro & Verse

E-----------------------------------------------------
B-----------------------------------------------------
G-7-5-7-11-----7-5-7-11--8----------------------------
D-7-5-7-11-----7-5-7-11--8----------------------------
A-5-3-5-9------5-3-5-9---6----------------------------
D-----------------------------------------------------

Chorus
[ Tab from: http://www.guitartabs.cc/tabs/s/serial_joe/deep_tab_ver_2.html ]
E-----------------------------------------------------
B-----------------------------------------------------
G---7-11-7-----7-11-7---------------------------------
D-5-7-11-7---5-7-11-7---9--5--------------------------
A-5-5-9--5---5-5-9--5---9--5--------------------------
D-5----------5----------9--5--------------------------

Part After Chorus

E---------------------------------------------------------
B---------------------------------------------------------
G-7---9---5-----------------------------------------------
D-7---9---5--0-xx-0-xx-0-1---0-xx-0-xx-0-1-0--------------
A-5---7---3--0-xx-0-xx-0-1---0-xx-0-xx-0-1-0--------------
D------------0-xx-0-xx-0-1---0-xx-0-xx-0-1-0--------------

Part Where Lyrics go "And I don't know why"(May be wrong, sounds close)

E---------------------------------------------------------
B---------------------------------------------------------
G-7---------4-4-4-4---------------------------------------
D-7---then--4-4-4-4-5-5-5-5
A-5---------2-2-2-2-5-5-5-5
D-------------------5-5-5-5

Questions? Changes?  email me at fingereleven19@hotmail.com

Comments