Serenade - The Way Home Chords & Tabs

 

The Way Home Chords & Tabs

Serenade Chords & Tabs

Version: 1 Type: Chords 1 rating
1 star 2 stars 3 stars 4 stars 5 stars
comments

The Way Home Chords

   
E Standard tuning.


Chords Used:


       Em     C#      E           B
D ---x------x------x---------x
A ---x------x------4---------x
F ---x------6-------4--------4
C ---2------6-------2--------4
G ---2------4-------x--------2
D ---0------x-------x--------x

Intro:
(A Cappella) 
You say you’re waiting 
But what are you waiting for

Em   C#   E   B
Em   C#   E   B  

Em
Take my heart 
C#
Take my soul
E
Take my hand
B
And never let go

Em
Take a chance
C#
Take a risk
E
Take a plunge
B
Don’t be troubled by this

Em
Have a little faith
C#
Trust in me
E
Open your eyes
B
Let your heart see
Em
Open your mind
C#
Let it sink in
E
Don’t think it through
B
Dive right in

Em
You say you’re waiting 
               C#
For your knight in shining armor
           E
Anticipating
       B
The first words from his sweet lips
                   Em
I’ll tell you one thing
           C#
Girl I think you’ve missed the boat
                          E
What were you saying?
                  B                               Em
When our eyes met on the way home

Em   C#   E   B
Em   C#   E   B  

Em
I’ll put my hand
C#
Upon her face
E
Look her in the eye
B
And softly say

Em
I’m sorry baby 
C#
For the way I’ve treated you
E
These past
B
22 months

Em
I’ll say I love you
C#
I guess I always will
E
Until the day I say
B
I do

Em
She looks at me

C#
Smiles so sweetly
E
With a tear in her eye
B
She turns around and leaves

Em
You say you’re waiting 
               C#
For your knight in shining armor
           E
Anticipating
       B
The first words from his sweet lips
                   Em
I’ll tell you one thing
           C#
Girl I think you’ve missed the boat
                          E
What were you saying?
                  B                               Em
When our eyes met on the way home

Em   C#   E   B
[ Tab from: http://www.guitartabs.cc/tabs/s/serenade/the_way_home_crd.html ]
Solo:
(2nd guitar continues verse underneath)
e-----------------------------------------------------------------------------------------------------------------------------
B----------------------------------------------------------------------------------------------------------------------------
G---7-12-11-12-9-7-11-11-9-11-12-9-7-7-12-11-12-9-9-7-9-12-11-7-12-11-12-9-7-11-11-9-11-12-9-7-7-
D-----------------------------------------------------------------------------------------------------------------------------
A-----------------------------------------------------------------------------------------------------------------------------
E------------------------------------------------------------------------------------------------------------------------------

e------------------------------------------------------------------------------------------------------------------------------
B-----------------------------------------------------------------------------------------------------------------------------
G---12-11-12-9-9-7-9-12-11-12-12-11-9---7--------------------------------------------------------------------------
D-----------------------------------------------7-----------------------------------------------------------------------------
A-----------------------------------------------------------------------------------------------------------------------------
E------------------------------------------------------------------------------------------------------------------------------

Em   C#   E   B
Em   C#   E   B  

Em
I took a drive
C#
Wound up at your house
E
Knocked on your door
B
Asked you to come out

Em
I told you 
C#
I would never leave you
E
I didn’t intend 
B
To break that promise

Em
I drove all this way
C#
To tell you
E
I wont
B
Let us end that way

Em
I want a new 
C#
Beginning baby
E
I’m on my knees
B
Let’s start again today

Em
She looks at me 
C#
Smiles so sweetly
E
With a tear in her eye
B
She comes home with me

(in rhythm with ‘home with me’)
e-----------------------0
B----------------------0
G----------------------0
D----------------------2
A-------4---2---0----2
E----------------------0
Written and Tabbed by Craig Durham and Jordan Dietrich of Serenade.  For a copy of this song or the whole CD email Craig at Geeksruletheworld@mchsi.com or AIM AaronBisgod
Comments