Serafin - Things Fall Apart Chords & Tabs

 

Things Fall Apart Chords & Tabs

Serafin Chords & Tabs

Version: 1 Type: Tab 0 ratings
1 star 2 stars 3 stars 4 stars 5 stars
comments

Things Fall Apart Tab

This isn't the most accurate tab, but it's a start, if you have comments,
make them corrections about the tab.

#----------------------------------PLEASE NOTE--------------------------------#
#This file is the author's own work and represents their interpretation of the#
#song. You may only use this file for private study, scholarship, or research.#
#-----------------------------------------------------------------------------#
#-- File created with Instab - http://www.pconline.com/~smcarey/instab.html --#
#-----------------------------------------------------------------------------#
[ Tab from: http://www.guitartabs.cc/tabs/s/serafin/things_fall_apart_tab.html ]
Intro
|------------------------------------------------------------------------------
|-------1-----1-------------------1-----1--------------------------------------
|---------2-----2------2------------2-----2------2----------2-----2--------2---
|---2-------2-----2-----------2-------2-----2-----------2-----2-----2----------
|-0---0--------------2---2--0---0--------------2---2--3---3-----3-----3--2-----
|------------------------------------------------------------------------------
                                                                              
-----------------------------
-----------------------------
----------0-----0--------2---
------2-----2-----2----2---2-
-2--0---0-----0-----0--------
-----------------------------
                                                                              
Chorus
|-5-------------------------------------5------------1--------------------
|-5-------------------------------------5------------1--------------------
|-6-----------9-------------------------6------------2--------------------
|-7-----------7-------------------------7------------3--------------------
|-7-----------5-------------------------7------------3--------------------
|-5-----------5-------------------------5------------1--------------------
  Californian Girl, californian girl, I am ............, californian girl,     

--------------------------5----------1------
--------------------------5----------1------
--------------------------6----------2------
--------------------------7----------3------
--------------------------7----------3------
--------------------------5----------1------
 californian girl, things fall apart again                                    

Bridge
|-0-0--0-0--0-0--0---0-0--0-0--0-0--0---0-0--0-0--0-0--0---0-0--1-1--1-1--0----
|-1-1--1-1--1-1--0---1-1--1-1--1-1--0---1-1--1-1--1-1--0---1-1--1-1--1-1--0----
|-2-2--2-2--2-2--0---2-2--2-2--2-2--0---2-2--2-2--2-2--0---2-2--2-2--2-2--0----
|-2-2--2-2--2-2--2---2-2--2-2--2-2--2---2-2--2-2--2-2--2---2-2--3-3--3-3--2----
|-0-0--0-0--0-0--2---0-0--0-0--0-0--2---0-0--0-0--0-0--2---0-0--3-3--3-3--2----
|----------------0------------------0------------------0------------------0----
                                                                              
End Bridge
|---------------------------
|---------------------------
|---------------------------
|---------------------------
|-7--7-7-7-7--/10---7---10--
|-5--5-5-5-5--/8---\5--/8---

Sorry, I've only done those 4 parts to the song, and they may not be entirely
correct, there's a verse riff after the intro missing and a couple of other
parts, but this is just a base for others to try tab off really.
Comments