Serafin - Day By Day Chords & Tabs

 

Day By Day Chords & Tabs

Serafin Chords & Tabs

Version: 2 Type: Bass Tab 0 ratings
1 star 2 stars 3 stars 4 stars 5 stars
comments

Day By Day Bass Tab

   
Serafin, Day by Day
Standard tuning
email Sio0x@aol.com for any questions or comments


P.S. enyoy!


Verse
G:------------------------------------------------------|
D:------------------------------------------------------|
A:44444444-44444444-44444444-44444444-22222222-22222222-|
E:------------------------------------------------------|

G:------------------------------------------------------|
D:------------------------------------------------------|
A:------------------------------------------------------|
E:00000000-44444444-55555555-55555555-22222222-44444444-|


Bridge 1
G:-----------------------------------------------------|
D:-----------------------------------------------------|
A:4444-444-4444444-------------------------------------|
E:-----------------------------------------------------|
[ Tab from: http://www.guitartabs.cc/tabs/s/serafin/day_by_day_btab_ver_2.html ]
Chorus
G:-----------------------------------------------------------|
D:-----------------------------------------------------------|
A:4-4-4/7-7------------------------444444442222222244444444-|
E:----------0-00-0-04-44-4-42-22-2-2-------------------------|

Bridge 2-solo
G:-----------------------------------------------------|
D:-------- --------------------------------------------|
A:44444444-11-11-9-9-6-77-4----------------------------|
E:-----------------------------------------------------|

Interlude
G:-----------------------------------------------------|
D:-----------------------------------------------------|
A:-----------------------------------------------------|
E:5-5-5-4-4-4-2-2-2-2-2-2-2-2-2-2-4-4-4-4-4-4-4-4------|

G:-----------------------------------------------------|
D:-----------------------------------------------------|
A:-----------------------------------------------------|
E:5-5-5-4-4-4-222222222222-2-3-4444444444444444--------|

Order:
Verse X1
Bridge 1 X1
Chorus X2
Verse X3
Brige 2/Solo X1
Chorus X2
Interlude X1
Chorus X2

A:4(until end)

End on A:4
Comments