Sepultura - Warrior Of Death Chords & Tabs

 

Warrior Of Death Chords & Tabs

Sepultura Chords & Tabs

Version: 1 Type: Tab 0 ratings
1 star 2 stars 3 stars 4 stars 5 stars
comments

Warrior Of Death Tab

Song: Warrior of death	
Band: SEPULTURA
Album: Bestial Devastation
Tabbed by: Florent Campana campana@clotaire.iuta.u-nancy.fr 
web: http://www.chez.com/tribe/sindex.htm { this is on Sepultura
http://www.chez.com/tribe/m_index.htm { this is on Max Cavalera
                  			
Intro drums

------------------------------------------------------------
------------------------------------------------------------
------------------------------------------------------------
---------------------------------------------------9-----8--
-----------------------7-6-7-----------------------7-----6--
--0-0-0--6-5-6--0-0-0---------0-0-0--6-5-6--0-0-0----0-0----



Verse
------------------------------------------------------
------------------------------------------------------
------------------------------------------------------
------------------------------------------------------
-----------------------------5-6-8-5-1-0---5-6-8-5-1-0
-5-6-8-5-1-0----5-6-8-5-1-0---------------------------

Little break pt 1
--------------------------
--------------------------
--------------------------
--------------------------
-7-6-1-0---7-6-7-6-1-0...-
[ Tab from: http://www.guitartabs.cc/tabs/s/sepultura/warrior_of_death_tab.html ]
Little breal pt 2
-----------------------------------
-----------------------------------
-----------------------------------
-----------------------------------
-----8/7-----9/8----10/9----10/11--
-0-0-6/5-0-0-7/6-0-0-8/7-0-0-8/9 --

Then intro


Little background
------------------
------------------
------------------
------------------
-2-5-4-3-2--------
-0-3-2-1-0--------

Guitar solo ( i play it in to versions, this is the first )
2x
--------------------------------------------------------------------
-12121212121212121212--13131313131313-121212121212-1010101010101010-
--------------------------------------------------------------------
--------------------------------------------------------------------
--------------------------------------------------------------------
--------------------------------------------------------------------

While Jairo plays that, Max plays the background


Heavy part ( i love play that )

-------------------------------
-------------------------------
-------------------------------
-------------------------------
-2-5-3-2-5-6-------------------
-0-3-1-0-3-4-------------------

Play that the third time in palm muting.

Then verse

Then break pt 1


That's all folks!

In the solo, Jairo plays a little stuff behind the notes i figured out, i will work on
it later, so, if you see errors, or if you find the little tapping in the solo mail me!
Comments