Sepultura - Troops Of Doom Chords & Tabs

 

Troops Of Doom Chords & Tabs

Sepultura Chords & Tabs

Version: 3 Type: Tab 0 ratings
1 star 2 stars 3 stars 4 stars 5 stars
comments

Troops Of Doom Tab

   
-------------------------------------------------------------------------------
			     Troops of Doom- Sepultura
-------------------------------------------------------------------------------
Tabbed by: BNN of Revolta
Email: pokemonlord@comcast.net

Tuning: E A D G B E

Intro Riff A
e|--------------------------------|
B|--------------------------------|
G|--------------------------------|
D|9-------10--11--8---9-----------|
A|7-------8---9---6---7-----------|
E|--------------------------------|

Intro Riff B
e|----------------------------------------------------------------|
B|----------------------------------------------------------------|
G|----------------------------------------------------------------|
D|--------9---9-----------10--10----------8---8-----------9---9---|
A|--------7---7-----------8---8-----------6---6-----------7---7---|
E|0-0-0-0---------0-0-0-0---------0-0-0-0---------0-0-0-0---------|
  * * * *         * * * *         * * * *         * * * *
Verse Riff A
e|--------------------------------|
B|--------------------------------|
G|--------------------------------|
D|--------------------------------|
A|----------------------8-----8---|
E|0-0-0---0-0-0---0-0-0-6-----6---|
  * * *   * * *   * * *
Verse Riff B
e|----------------------------------------------------------------|
B|----------------------------------------------------------------|
G|----------------------------------------------------------------|
D|----------------------------------------------------------------|
A|7777777777777777----------------6666666666666666----------------|
E|----------------7777777788888888----------------7777777788888888|
[ Tab from: http://www.guitartabs.cc/tabs/s/sepultura/troops_of_doom_tab_ver_3.html ]
Verse Riff C
e|--------------------------------|
B|--------------------------------|
G|--------------------------------|
D|--------------------------------|
A|------------------------5---8---|
E|0-0-000-0-0-000-0-0-000-3---6---|
  * * *** * * *** * * ***
Interlude Riff A (Andreas)
e|-------------------------------------------------------|
B|-------------------------------------------------------|
G|-------------------------------------------------------|
D|-------------------------------------------------------|
A|14-----14-----15-----13-----14-----14-----15-----17----|
E|12-0-0-12-0-0-13-0-0-11-0-0-12-0-0-12-0-0-13-0-0-15-0-0|
     * *    * *    * *    * *    * *    * *    * *    * *
(Max)
e|-----|
B|-----|
G|-----|
D|2----|
A|2----|
E|0----|

Interlude Riff B
e|------------------------------------------------------|
B|------------------------------------------------------|
G|------------------------------------------------------|
D|------------------------------------------------------|
A|14-----14-----15-----13----14-----14-----15-----17----|
E|12-0-0-12-0-0-13-0-0-11----12-0-0-12-0-0-13-0-0-15----|
     * *    * *    * *          * *    * *    * *
Verse Riff D
e|------------------------------------------|
B|------------------------------------------|
G|------------------------------------------|
D|------------------------------------------|
A|--------------------------------8-----8---|
E|0---00000---00000---00000---00006-----6---|
  *   *****   *****   *****   ****
Outro
e|------------------------------|
B|------------------------------|
G|------------------------------|
D|------------------------------|
A|------------------5---8---2---|
E|0-0---0-0---0-0---3---6---0---|
  * *   * *   * * 

Order:
Intro Riff A x2
Intro Riff B x2
Intro Riff A x2
Intro Riff B x2
Verse Riff A x8
Verse Riff B x4
Verse Riff C x4
Verse Riff A x4
Verse Riff B x4
Interlude Riff A x3
Interlude Riff B x2
Verse Riff D x4
Verse Riff B (under solo) x4
Verse Riff C x4
Outro x1

| *  palm mute
| /  slide up
| \  slide down
| h  hammer-on
| p  pull-off
| ~  vibrato
| +  harmonic
| x  Mute note
=============================================================================
Comments