Sepultura - Territory Chords & Tabs

 

Territory Chords & Tabs

Sepultura Chords & Tabs

Version: 8 Type: Tab 0 ratings
1 star 2 stars 3 stars 4 stars 5 stars
comments

Territory Tab

   
Territory
by
Sepultura
from
CHAOS A.D
Tab by: Martin Zahedi


     Drum intro
|----------------------|
|----------------------|
|----------------------|
|----------------------|
|----------------------|
|----------------------|

riff 1
|-------------------------------------------------------------------------|
|-------------------------------------------------------------------------|
|-------------------------------------------------------------------------|
|-------------------------------------------------------------------------|
|-11\10-10-11\10-10-11\10-10-11\10-10-11\10-10-11\10-10-11\10-10-11\10-10-|
|--9\8--8---9\8--8---9\8--8---9\8---8--9\8--8---9\8--8---9\8--8---9\8--8--|

riff2
let ring......................................................
|--------------------------------------------------------------------|
|--------------------------------------------------------------------|
|--------------------------------------------------------------------|
|--------------------------------------------------------------------|
|-3------------------------------------------------------------------|
|-1-----------------------------------------------------------000000-|


riff3                                           
pm. .  . . ... .  . . ... .  . . ... .  . . ...
|-----------------------------------------------| |
|-----------------------------------------------| |
|-----------------------------------------------|.|
|-----------------------------------------------|.|
|-----------------------------------------------| |
|-0-0--0-0-000-0--0-0-000-0--0-0-000-0--0-0-000-| |


Chorus
[ Tab from: http://www.guitartabs.cc/tabs/s/sepultura/territory_tab_ver_8.html ]
|-------------------0-------------------------|
|-------------------0-------------------------|
|---------------------------------------------|
|----------------2----------------------------|
|-6-\3-3--6-\3-3-2-------6-\3-3--6-\3-3-/8----|
|-4-\1-1--4-\1-1-0-------4-\1-1--4-\1-1-/6----|


song riff
pm. . . .
|---------|
|---------|
|---------|
|---------|
|---------|
|-4-1-0-0-|


riff4
pm.  ....  . .  ....  . .  ....  . .  ....
|-------------------------------------------| |
|-------------------------------------------| |
|-------------------------------------------|.|
|-------------------------------------------|.|
|-------------------------------------------| |
|-0--0000--0-0--0000--0-0--0000--0-0--0000--| |

riff5
pm    . .       . . . .     . .       . . . .
|----------------------------------------------| |
|----------------------------------------------| |
|----------------------------------------------|.|
|-9-9-----9-9-9---------9-9-----9-9-9----------|.|
|-7-7-----7-7-7---------7-7-----7-7-7----------| |
|-----0-0-------0-0-0-0-----0-0-------0-0-0-0--| |

...if I can remember it right the next one goes like this....

riff6

|---------------------------|     |--------------------------|
|---------------------------|     |--------------------------|
|---------------------------|  or |--------------------------|
|---------------------------|     |-2-------------2----------|
|-3-----5--6----3-----5--6--|     |-2-----3--5----2----3--5--|
|-1-----3--4----1-----3--4--|     |-0-----1--3----0----1--3--|

riff6b
|------------------|
|------------------|
|------------------|
|------------------|
|--h-h-h-h-h-h-h-h-|
|-0101013434344545-|


Enjoy!
Mail me for more questions: lifeformetal@msn.com
Comments