Sepultura - Territory Chords & Tabs

 

Territory Chords & Tabs

Sepultura Chords & Tabs

Version: 4 Type: Tab 1 rating
1 star 2 stars 3 stars 4 stars 5 stars
comments

Territory Tab

   
TERRITORY
 from: SEPULTURA
       CHAOS A.D.
 
By:Cavalera
drop tuning one step
|---------------------|------------------|
|---------------------|------------------|
|---------------------|------------------|
|--9\8-8-8--9\8-8-8---|------------------|
|--7\6-6-6--7\6-6-6---|---2-----(2)------|
|---------------------|---0-----(0)------|

|------------------------------------------------------------|
|------------------------------------------------------------|
|------------------------------------------------------------|
|------------------------------------------------------------|
|----------------------------------------------------------2-|
|--0-0--0-0--0-0-0-0--0-0--0-0-0-0--0-0--0-0-0-0--0-0--0-0-0-|
   *------------------------------------------------------|

Chorus

|---------------------------------------------|
|--------------------0------------------------|
|--------------------0------------------------|
|----------------2----------------------------|
|-6-\3-3--6-\3-3-2-------6-\3-3--6-\3-3-/7----|
|-4-\1-1--4-\1-1-0-------4-\1-1--4-\1-1-/5----|


song riff
pm. . . .
|---------|
|---------|
|---------|
|---------|
|---------|
|-5-1-0-0-|

riff4
pm.  ....  . .  ....  . .  ....  . .  ....
|-------------------------------------------| |
|-------------------------------------------| |
|-------------------------------------------|.|
|-------------------------------------------|.|
|-------------------------------------------| |
|-0--0000--0-0--0000--0-0--0000--0-0--0000--| |

riff5
pm    . .       . . . .     . .       . . . .
|----------------------------------------------| |
|----------------------------------------------| |
|----------------------------------------------|.|
|-8-8-----8-8-8---------8-8-----8-8-8----------|.|
|-6-6-----6-6-6---------6-6-----6-6-6----------| |
|-----0-0-------0-0-0-0-----0-0-------0-0-0-0--| |

|------------------|
|------------------|
|------------------|
|------------------| X4
|-4-5-8------------|
|-2-3-6------------|

Before solo
|------------------|--------||
|------------------|--------||
|------------------|--------||
|------------------|--------||
|-------3--------3-|-6-7-8--||
|-0-0-0-1--0-0-0-1-|--------||
[ Tab from: http://www.guitartabs.cc/tabs/s/sepultura/territory_tab_ver_4.html ]
   . . .    . . .
SOLO RIFF
|--------------------------------||
|--------------------------------||
|--------------------------------||
|-9/8-8-8-8-8--9/8-8--9/8-8-8-8--||
|-7/6-6-6-6-6--7/6-6--7/6-6-6-6--||
|--------------------------------||

|----------------------------||
|----------------------------||
|----------------------------||
|----------------------------||
|-3-3--3-3--3-3--3-3--3-3-3--||
|-1-1--1-1--1-1--1-1--1-1-1--||
 
SOLO
 |----------------------------------------------------|
 |---------------------------------------12-12-12-----|
 |-----12-12-12-12-12-12--------12-12-14-14-14-14--X--|
 |-14--13-13-13-13-13-13-13/14--13-13-----------------|
 |----------------------------------------------------|
 |----------------------------------------------------|
 |
 |--15---15---15-----15---15---15--|
 |--18---18---18-----18---18---18--|
 |---------------------------------|
 |---------------------------------|
 |---------------------------------|
 |---------------------------------|
 |
 |-15-17-17-17-17--15-17-17-17--16-17-17-17-15-15--|
 |-18-18-18-18-18--18-18-18-18--18-18-18-18-18-18--|
 |-------------------------------------------------|
 |-------------------------------------------------|
 |-------------------------------------------------|
 |-------------------------------------------------|
 |
 | *W/HARMONISER
 |-6-10---11-10---11-7-0---11-10---11-10-7-0---0-6/7-10-7-0---0-7-10-|
 |--H-----T-P-P----T-P-P----T-P-----T-P--P-P---H----H--P-P-----H-H---|
 |-------------------------------------------------------------------|
 |-------------------------------------------------------------------|
 |-------------------------------------------------------------------|
 |-------------------------------------------------------------------|
 |
 |-11-10-7-0-6---11-10---11-10-7/0-7---11-7-6-5------|
 |--T--P-P--H-----T-P-----T-P-P---H----T-P-P-P--7/8--|
 |---------------------------------------------------|
 |---------------------------------------------------|
 |---------------------------------------------------|
 |---------------------------------------------------|
 |
 |--------------------------------------------------------------------------||
 |-7/8---11-7---11-5---11-7---11-5---11-4--5-7-5---8-4-5-7-4/1-4-0-1-4-1-0--||
 |--------T-P----T-P----T-P----T-P----T-P-H-H-P----TP-H-H-P---H-P-H-H-P-P---||
 |--------------------------------------------------------------------------||
 |--------------------------------------------------------------------------||
 |--------------------------------------------------------------------------||

Comments