Sepultura - Territory Chords & Tabs

 

Territory Chords & Tabs

Sepultura Chords & Tabs

Version: 3 Type: Bass Tab 0 ratings
1 star 2 stars 3 stars 4 stars 5 stars
comments

Territory Bass Tab

 INTRO (Come in at 7 sec.) (clean)
 G|--------------------------------------|
 D|--------------------------------------|
 A|--54444-54444-54444-54444-54444-54444-|
 D|--------------------------------------|

                                            
 G|--------------------------------------|
 D|--------------------------------------|
 A|--------------------------------------|
 D|--32222-32222-32222-32222-32222-32222-|

   (Muted-x)  (let Ring-~)   (distortion)                  
 G|--------------------------------------|
 D|--------------------------------------|
 A|--------------------------------------|
 D|-xxxxxxxxxxxxxxxxxxxxxxxxxxxxxxxxx-0~-|
   Listen To Song For Rythem,                                   
                                         (clean)
 G|-------------------------------------------------------------|
 D|-------------------------------------------------------------|
 A|-------------------------------------------------------------|
 D|-3222-3222-0-7~-3222-3222-0-5~-3222-3222-0-7~-3222-3222-0-5~-|

    (Muted-x)               (distortion)               
 G|--------------------------------------|
 D|--------------------------------------|
 A|--------------------------------------|
 D|-1xx1-xxxx1-xx1-xxxx1-xx1-xxxx1-xx1---|
    Listen To Song For Rythem
                                         (clean)
 G|-------------------------------------------------------------|
 D|-------------------------------------------------------------|
 A|-------------------------------------------------------------|
 D|-3222-3222-0-7~-3222-3222-0-5~-3222-3222-0-7~-3222-3222-0-5~-|

    (Muted-x)              (distortion)
 G|--------------------------------------|
 D|--------------------------------------|
 A|--------------------------------------|
 D|-xxxxxxxxxxxxxxxxxxxxxxxxxxxxxxxxxxx--|
     Listen To Song For Rythem                                    
    (Muted-x)              (distortion)                        
 G|--------------------------------------|
 D|--------------------------------------|
 A|--------------------------------------|
 D|-1xx1-xxxx1-xx1-xxxx1-xx1-xxxx1-xx1---|
    Listen To Song For Rythem
                                         (clean)
 G|----------------------------------------------------------------|
 D|----------------------------------------------------------------|
 A|----------------------------------------------------------------|
 D|-3222-3222-0-7~-3222-3222-0-5~-3222-3222-0-7~-3222-3222-0-5~-0~-|

                        (distortion) 
 G|----------------------------------|
 D|----------------------------------|
 A|-55---555-------55----555---------|
 D|---xx-----xxxxx----xx-----xxxxx---|


 G|----------------------------------|
 D|----------------------------------|
 A|-55---555-------55----555---------|
 D|---xx-----xxxxx----xx-----xxxxx---|
[ Tab from: http://www.guitartabs.cc/tabs/s/sepultura/territory_btab_ver_3.html ]
                            (clean)
 G|----------------------------------|
 D|----------------------------------|
 A|----------------------------------|
 D|-0~----1~----4~----0~----1~----4~-|
                                          
                                       
 G|----------------------------------|
 D|----------------------------------|
 A|----------------------------------|
 D|-0~----1~----4~----0~----1~----4~-|

                        (distortion)                 
 G|----------------------------------|
 D|----------------------------------|
 A|-55---555-------55----555---------|
 D|---xx-----xxxxx----xx-----xxxxx---|


                  
 G|----------------------------------|
 D|----------------------------------|
 A|-55---555-------55----555---------|
 D|---xx-----xxxxx----xx-----xxxxx---|

 
                                   (distortion) 
 G|----------------------------------------------|
 D|----------------------------------------------|
 A|----------------------------345---------------|
 D|-1xx1xxxx1 xx1xxxx1xx1xxxx1-----1xx1xxx1xxx1--|

                               (distortion) 
 G|-----------------------------------------|
 D|-----------------------------------------|
 A|--------------345------------------------|
 D|-1xx1xxxx1xx1-----1xx1xxxx1xxxx1---------|

                              (distortion)
 G|-----------------------------------------|
 D|-----------------------------------------|
 A|-4363430--4363430--------------------345-|
 D|------------------1xxx1xxxx1xx1xxxx1-----|

                              (distortion)                           
 G|-----------------------------------------|
 D|-54444-54444-7-8---54444-54444-7-8-------|
 A|-----------------------------------------|
 D|-----------------------------------------|

                              (distortion)
 G|-----------------------------------------|
 D|-54444-54444-7-8---54444-54444-7-8-------|
 A|-----------------------------------------|
 D|-----------------------------------------|

                                     (distortion)
 G|------------------------------------------------|
 D|------------------------------------------------|
 A|------------------------------------------------|
 D|-xx-xx-xxxx-xx-xx-xxxx-xx-xx--xxxxx-xx-xx-xxxxx-|
  Play During Guitar Solo, Listen To Song For Rythem
                              
                           (distortion) 
 G|--------------------------------------|
 D|--------------------------------------|
 A|--------------------------------------|
 D|-1xx1-xxxx1-xx1-xxxx1-xx1-xxxx1-xx1---|

                                                        (clean) 
 G|--------------------------------------------------------------|
 D|--------------------------------------------------------------|
 A|--------------------------------------------------------------|
 D|-3222-3222-0-7~-3222-3222-0-5~-3222-3222-0-7~-3222-3222-0-5~--|

  (clean)                                                           (distortion)
 G|-----|-------------------------------------------------------------------------|
 D|-----|-------------------------------------------------------------------------| 
 A|-----|-------------------------------------------------------------------------|  
 D|--0~-|--1xx1-xxxx1-xx1-xxxx1-xx1-xxxx1-xx1-1xx1-xxxx1-xx1-xxxx1-xx1-xxxx1-xx1--|
                                                               Play Until Song End!

Tabbed by: StuKkBassist
Comments