Sepultura - Territory Chords & Tabs

 

Territory Chords & Tabs

Sepultura Chords & Tabs

Version: 1 Type: Bass Tab 1 rating
1 star 2 stars 3 stars 4 stars 5 stars
comments

Territory Bass Tab

   
                                    Territory
                                  by Sepultura
          		transcribed by Travis Higgins 

Tuned down one whole step (D, G, C, F)

Intro  repeat 4 times                                                           
-||----------------------------------||-----|-----|-----|-----|-----------------
-||*--------------------------------*||-----|-----|-----|-----|-----------------
-||*--7--6--6--6--6--7--6--6--6--6--*||-----|-----|-----|-----|-----------------
-||----------------------------------||--0--|-----|--0--|-----|-----------------
                                                                                

     repeat 4 times                                                             
||--------------------------------------||-----|-----|-----|--------------------
||*------------------------------------*||-----|-----|-----|--------------------
||*------------------------------------*||-----|-----|-----|--------------------
||----0--0--0--0--0--0--0--0--0--0--0---||--0--|-----|--0--|--------------------
                                                                                

                                                                                
||------------------------------|------------------------------------||---------
||*-----------------------------|-----------------------------------*||---------
||*-----------------------------|-----------------------------------*||---------
||---4--1--1--1--4--1--1--1--0--|--4--1--1--1--4--1--1--1--5-----5---||---------
                                                                                

1st and 2nd verses    play 4 times         
--------------------------------------|
--------------------------------------|
--------------------------------------|
-5--1--0--0--5--1--0---0--5--1--0--0--|
                                                                                

  1st and 2nd choruses               
---------------------------|---------
---------------------------|---------
---------------------------|---------
---4--1--1--1--4--1--1--0--|---------

                                                                                
------------------------------|-----------------------------|-------------------
------------------------------|-----------------------------|-------------------
------------------------------|-----------------------------|-------------------
4--1--1--1--4--1--1--1--5--5--|--4--1--1--1--4--1--1--1--0--|-------------------
                                                                                

                                   repeat 4 times                               
------------------------------||-----------------------------------------||-----
------------------------------||*---------------------------------------*||-----
------------------------------||*---------------------------------------*||-----
4--1--1--1--4--1--1--1--5--5--||----0--0--0--0--0--0--0--0--0--0--0--0---||-----
                                                                                

     after 2nd chorus       play 4 times      play 4 times                 
||---------------------------------------||-----------------|-------------------
||*-------------------------------------*||*---------------*|-------------------
||*---6--6--------6---6--6--------------*||*---------------*|-------------------
||----------0--0------------0--0--0--0---||--2-----3----/6--|-------------------
                                                                                
[ Tab from: http://www.guitartabs.cc/tabs/s/sepultura/territory_btab.html ]
     Bridge (Dicator's Speech) play 4 times                                               
||--------------------------------------||--------------------------------------
||*------------------------------------*||--------------------------------------
||*---6--6--------6--6--6--------------*||--------------------------------------
||----------0--0-----------0--0--0--0---||--------------------------------------
                                                                                

      Interlude                                                                                
||---------------------------------------------------------------|--------------
||*--------------------------------------------------------------|--------------
||*--------------------------------------------------------------|--------------
||---0--0--0--1--1--0--0--0--1--1--0--0--0--1--1--0--0--0--1--1--|--------------
                                                                                

                                                                                
----------------------------------------------||------------------------||-
---------------------------------------------*||*----------------------*||-
---------------------------------------------*||*--8--4-8--5--8--4-----*||-
0--0--0--1--1--0--0--0--1--1--0--0--6--7--8---||---------------------0--||-
                                                                                


||---------------------------------------------------------------|--------------
||---------------------------------------------------------------|--------------
||---------------------------------------------------------------|--------------
||---0--0--0--1--1--0--0--0--1--1--0--0--0--1--1--0--0--0--1--1--|--------------



---------------------------------------------||-
---------------------------------------------||-
---------------------------------------------||-
0--0--0--1--1--0--0--0--1--1--0--0--6--7--8--||-



   Guitar Solo                   play 4 times                                                             
||----------------------------------------------------||------------------------
||*--------------------------------------------------*||------------------------
||*--------------------------------------------------*||------------------------
||---7--6--6--6--6--6--7--6--6--7--6--6--6--6--6--6---||------------------------
                                                                                

                                    play 4 times                                            
||-------------------------------------------------||---------------------------
||*-----------------------------------------------*||---------------------------
||*-----------------------------------------------*||---------------------------
||---5--5-----5--5-----5--5-----5--5-----5--5--5---||---------------------------
                                                                                

for 3rd verse and chorus just repeat riffs from other verses and chorus            


================================================================================
==           Created with a shareware version of the BUCKET 'O TAB            ==
==                  tablature creation software for Windows                   ==
==                           For more information:                            ==
==                          email: gse@ocsystems.com                          ==
==      US Mail: The Bucket, 3176-B5 Summit Square Dr., Oakton, VA 22124      ==
================================================================================

Comments