Sepultura - Subtraction Chords & Tabs

 

Subtraction Chords & Tabs

Sepultura Chords & Tabs

Version: 2 Type: Bass Tab 0 ratings
1 star 2 stars 3 stars 4 stars 5 stars
comments

Subtraction Bass Tab

Subtraction Bass TabsRoots of Sepultura - www.treibsand.com/sepultura
Subtraction
Arise
riff1
A------------------------------------------8/7--5/7----
E----0--0-0-0---0---0-0-0--0---0-0-0----------------
Riff 2
A------------------------------------8/7---5/7--------
E--0-0-0-0-0-0-0-0-0-0-0-0-0-0--------------------
main riff
D-----------------------------3-----3-----3-----------------------
A-----2-----2------2-----1--1--1--1--1--1-1-1-1-1-1-1-1-1----
E--0--0--0--0--0--0--0-----------------------------------------------

riff 3
A-----------------------------------5/7----5/7/8----
E------0---0-0-0--0---0-0-0---0--------------------
Riff 4
A---7-------7/8-7--7------7-----------7------7/8-7--7-------7------6------6/7-6--6-------6---
E------0-0-------------0-0--------0-0----0-0------------0-0----0-0----0-0------------0-0------
riff 5   (we sall rise from the past...)
A----------7---------6--------10---------9-----
E----0--0-----0--0-----0--0-------0--0---------
this is my favourite song but it's incomplete
By David Clément




[ Tab from: http://www.guitartabs.cc/tabs/s/sepultura/subtraction_btab_ver_2.html ]
Comments