Sepultura - Stronger Than Hate Chords & Tabs

 

Stronger Than Hate Chords & Tabs

Sepultura Chords & Tabs

Version: 2 Type: Tab 0 ratings
1 star 2 stars 3 stars 4 stars 5 stars
comments

Stronger Than Hate Tab

   
#----------------------------------PLEASE NOTE---------------------------------#
#This file is the author's own work and represents their interpretation of the #
#song. You may only use this file for private study, scholarship, or research. #
#------------------------------------------------------------------------------##

                               STRONGER THAN HATE
                            As recorded by Sepultura
                    (From the 1989 Album BENEATH THE REMAINS)

Words by Kelly Shaefer

Music by Max Cavalera, Igor Cavalera, Andreas Kisser, an Paulo Jr.


Gtr I (E A D G B E) - 'Rhythm Guitar 1'
Gtr II (E A D G B E) - 'Rhythm Guitar 2'
Gtr III (E A D G B E) - 'Lead Guitar'
Gtr IV (E A D G B E) - 'Harmony Guitar 1'
Gtr V (E A D G B E) - 'Harmony Guitar 2'
Gtr VI (E A D G B E) - 'Clean Guitar for Bass Outro'

   Intro
    Fast Rock Q=264
    E5         Bb5E5        Bb5E5              N.C.
   4/4
    Gtrs I, II
                                               PM------------|
    W          Q  Q  H      Q  Q  H            E E E E E E E E
||-----------|------------|-------------||-||------------------|
||o----------|------------|------------o||-||o-----------------|
||-----------|------------|-------------||-||------------------|
||-----------|-3----------|-3-----------||-||------------------|
||o-2--------|-1--2-------|-1--2-------o||-||o-----------------|
||--0--------|----0-------|----0--------||-||--0-0-0-0-0-0-0-0-|


  PM------------------|
  S S E S S E S S E S S E
|-------------------------|
|-------------------------|
|-------------------------|
|-------------------------|
|-------------------------|
|-0-0-0-0-0-0-0-0-0-0-0-5-|


  G#5
    PM------------------------|     PM--------|
  E S S S S S S S S S S S S S S   E S S S S S S Q  Q
|-------------------------------|-----------------------||
|-------------------------------|----------------------o||
|-------------------------------|-----------------------||
|-------------------------------|-----------------------||
|-6-----------------------------|-6-------------6--6---o||
|-4-4-4-4-4-4-4-4-4-4-4-4-4-4-4-|-4-4-4-4-4-4-4-4--4----||


  N.C.
  Gtr III
   |---3---|  |---3---|  |---3---|  |---3---|    |----3----|  |----3----|  |----3----|  |----3----|
   E  E    E  E  E    E  E  E    E  E  E    E    E    E    E  E    E    E  E    E    E  E    E    E
|-19-17---16------------19-17---16------------|-19---17---16--------------19---17---16--------------|
|------------19-17---16------------19-17---16-|--------------19---17---16--------------19---17---16-|
|---------------------------------------------|-----------------------------------------------------|
|---------------------------------------------|-----------------------------------------------------|
|---------------------------------------------|-----------------------------------------------------|
|---------------------------------------------|-----------------------------------------------------|
|
| Gtrs I, II
|  PM-------------------------------------------------------------------------------------|
|  E    E     E    E     E    E     E    E       S S    E     S S    E     S S    E     S S    E
|---------------------------------------------|-----------------------------------------------------|
|---------------------------------------------|-----------------------------------------------------|
|---------------------------------------------|-----------------------------------------------------|
|---------------------------------------------|-----------------------------------------------------|
|---------------------------------------------|-----------------------------------------------------|
|--0----0-----0----0-----0----0-----0----0----|--0-0----0-----0-0----0-----0-0----0-----0-0----5----|


  G#5
   |---3---|    |----3----|    |----3----|    |----3----|
   E  E    E    E    E    E    E    E    E    E    E    E
|-19-17---16---------------------------------------------------|
|--------------19---17---16---17-------------------------------|
|----------------------------------19---17---16---17---16------|
|--------------------------------------------------------------|
|--------------------------------------------------------------|
|--------------------------------------------------------------|
|
|       PM------------------------------------------------|
|  E    S    S  S S    S    S  S S    S    S  S S    S    S
|--------------------------------------------------------------|
|--------------------------------------------------------------|
|--------------------------------------------------------------|
|--------------------------------------------------------------|
|--6-----------------------------------------------------------|
|--4----4----4--4-4----4----4--4-4----4----4--4-4----4----4----|


                                        N.C.
   |---3---|    |----3----|
   E  E    E    E    E    E    Q  Q      S  E    S  +S   S  E  E  S  S  S  E    S
|-------------------------------------|-12-12---12-(12)-------12-16p12------------|
|---------------------------------x/--|-----------------15-12----------15-12---15-|
|-------------------------------------|-------------------------------------------|
|-19-17---16---17---16----------------|-------------------------------------------|
|------------------------19---17------|-------------------------------------------|
|-------------------------------------|-------------------------------------------|
|
|       PM------------------|            PM----------------------------------------
|  E    S    S  S S    S    S  Q  Q      E    E      E      E  E  E     E    E
|-------------------------------------|-------------------------------------------|
|-------------------------------------|-------------------------------------------|
|-------------------------------------|-------------------------------------------|
|-------------------------------------|-------------------------------------------|
|--6---------------------------6--6---|-------------------------------------------|
|--4----4----4--4-4----4----4--4--4---|--0----0------0------0--0--0-----0----0----|


             |----3----|  |----3----|  |----3----|
   +E     E  E    E    E  E    E    E  E    E    E
|--------12--------------12---16---12---------------|
|-(15)------15---12---15--------------15---12-------|
|-----------------------------------------------13--|
|---------------------------------------------------|
|---------------------------------------------------|
|---------------------------------------------------|
|
|----------------------------------------|
|   S  S  E  S S    E     S S    E     S S    E
|---------------------------------------------------|
|---------------------------------------------------|
|---------------------------------------------------|
|---------------------------------------------------|
|---------------------------------------------------|
|---0--0--0--0-0----0-----0-0----0-----0-0----5-----|


  G#5
                                                ~~~~~~~~~
   |---3---|    |---3---|
   E  E    E    S  S    S  S  S  E    E    E    E
|----19-------------------------20---17--------22b24====|
|-20------20---19-17------17-20-----------20------------|
|----------------------19-------------------------------|
|-------------------------------------------------------|
|-------------------------------------------------------|
|-------------------------------------------------------|
|
|       PM--------------------------------------------|
|  E    S    S  S    S     S  S  S S  S S  S S  S     S
|-------------------------------------------------------|
|-------------------------------------------------------|
|-------------------------------------------------------|
|-------------------------------------------------------|
|--6----------------------------------------------------|
|--4----4----4--4----4-----4--4--4-4--4-4--4-4--4-----4-|


                                 Slower Q=192
                                 E5
 ~~~~~~
   +H               +H           W           W
|-(22)-------------(22)r\-----||----------|--------|
|-----------------------------||----------|--------|
|-----------------------------||----------|--------|
|-----------------------------||----------|--------|
|-----------------------------||----------|--------|
|-----------------------------||----------|--------|
|
|      PM--------|
|   E  S S S S S S   Q     Q     W          +W
|-----------------------------||----------|--------|
|-----------------------------||----------|--------|
|-----------------------------||----------|--------|
|-----------------------------||----------|--------|
|---6----------------6-----6--||-2--------|-(2)----|
|---4--4-4-4-4-4-4---4-----4--||-0--------|-(0)----|


                                N.C.
  Gtr I
  W          +H.          Q     W                 +W
|----------|------------------|-----------------|-------------------|
|----------|------------------|-----------------|-------------------|
|----------|------------------|-----------------|-------------------|
|----------|------------------|-----------------|-------------------|
|-2--------|-(2)--------------|-----------------|-------------------|
|-0--------|-(0)---------12\--|-0---------------|-(0)---------------|
|
| Gtr II
|                               PM--|     PM|         PM|     PM|
| W          +H      H          E E E E E E E E    E  E E E E E E E
|----------|------------------|-----------------|-------------------|
|----------|------------------|-----------------|-------------------|
|----------|------------------|-----------------|-------------------|
|----------|------------------|-----------------|--6----------------|
|-2--------|-(2)--------------|-------7-8-----7-|---------7-8-----7-|
|-0--------|-(0)----15\-------|-0-0-0-----0-0---|-----0-0-----0-0---|


  PM--|     PM|       PM|     PM|       PM|      PM|       PM|      PM|
  E E E E E E E E   E E E E E E E E   E E E E  E E E E   E E E E  E E E E
|-----------------|-----------------|------------------|------------------|
|-----------------|-----------------|------------------|------------------|
|-----------------|-----------------|------------------|-8----------------|
|-----------------|-6---------------|-6-----9-10-----9-|-------9-10-----9-|
|-------7-8-----7-|-------7-8-----7-|------------------|------------------|
|-0-0-0-----0-0---|---0-0-----0-0---|---0-0------0-0---|---0-0------0-0---|
|
|   PM|     PM|       PM|     PM|       PM|      PM|       PM|      PM|
| E E E E E E E E   E E E E E E E E   E E E E  E E E E   E E E E  E E E E
|-----------------|-----------------|------------------|------------------|
|-----------------|-----------------|------------------|------------------|
|-----------------|-----------------|------------------|------------------|
|-6---------------|-6---------------|-6----------------|-6----------------|
|-------7-8-----7-|-------7-8-----7-|-------7--8-----7-|-------7--8-----7-|
|---0-0-----0-0---|---0-0-----0-0---|---0-0------0-0---|---0-0------0-0---|


                                            E5
    PM|      PM|       PM|              PM|
  E E E E  E E E E   E E E E E E  E E   E E H.        +W
|------------------|------------------|-------------|--------|
|------------------|------------------|-------------|--------|
|-8----------------|-8-------9-8------|-------------|--------|
|-------9-10-----9-|-------9-----10-9-|-------------|--------|
|------------------|------------------|-----2-------|-(2)----|
|---0-0------0-0---|---0-0------------|-0-0-0-------|-(0)----|
|
|   PM|      PM|       PM|              PM|
| E E E E  E E E E   E E E E E E  E E   E E H.        +W
|------------------|------------------|-------------|--------|
|------------------|------------------|-------------|--------|
|------------------|------------------|-------------|--------|
|-6----------------|-6-------7-6------|-------------|--------|
|-------7--8-----7-|-------7------8-7-|-----2-------|-(2)----|
|---0-0------0-0---|---0-0------------|-0-0-0-------|-(0)----|


  D5                                    F5                    C#5
  Gtr III
  PM------------------------------------------------------------------------|
  E E E E E E E E    E  E E E E E E E   E  E E E E E  E   E   E E E E E E E E
|-----------------|-------------------|---------------------|-----------------|
|-----------------|-------------------|---------------------|-----------------|
|-------6---------|---------6---------|--------6------------|-----7-6---------|
|---7-----7-6-7-6-|-----7-----7-6-7-6-|----7-----7-6--7---6-|---7-----7-6-7-6-|
|-5---5-----------|--5----5-----------|-5----5--------------|-5---------------|
|-----------------|-------------------|---------------------|-----------------|
|
| Gtrs I, II
| W                 +W                  H.           +Q       W
|-----------------|-------------------|---------------------|-----------------|
|-----------------|-------------------|---------------------|-----------------|
|-----------------|-------------------|---------------------|-----------------|
|-0---------------|-(0)---------------|---------------------|-----------------|
|-0---------------|-(0)---------------|-8------------(8)\---|-4---------------|
|-----------------|-------------------|-8------------(8)\---|-4---------------|


  N.C.D5                                 F5                    C#5
  PM-------------------------------------------------------------------------|
  E E E  E E E E E    E  E E E E E E E   E  E E E E E  E   E   E E E E E E E E
|------------------|-------------------|---------------------|-----------------|
|------------------|-------------------|---------------------|-----------------|
|-----7--6---------|-------7-6---------|--------6------------|-------6---------|
|---7------7-6-7-6-|-----7-----7-6-7-6-|----7-----7-6--7---6-|---7-----7-6-7-6-|
|-5----------------|--5----------------|-5----5--------------|-5---5-----------|
|------------------|-------------------|---------------------|-----------------|
|
| PM|
| E E H.             +W                  H.           +Q       W
|------------------|-------------------|---------------------|-----------------|
|------------------|-------------------|---------------------|-----------------|
|------------------|-------------------|---------------------|-----------------|
|-----0------------|-(0)---------------|---------------------|-----------------|
|-----0------------|-(0)---------------|-8------------(8)\---|-4---------------|
|-0-1--------------|-------------------|-8------------(8)\---|-4---------------|


  N.C.D5
  PM------------------------------------
  E E E  E E E E E    E  E E E E E E E
|------------------|-------------------|
|------------------|-------------------|
|--------6---------|-------7-6---------|
|---7------7-6-7-6-|-----7-----7-6-7-6-|
|-5---5------------|--5----------------|
|------------------|-------------------|
|
| PM|
| E E H.             +W
|------------------|-------------------|
|------------------|-------------------|
|------------------|-------------------|
|-----0------------|-(0)---------------|
|-----0------------|-(0)---------------|
|-0-1--------------|-------------------|


  F5                    C#5               N.C.
 -------------------------------------|
  E  E E E E E  E   E   E E E E E E E E   W
|---------------------|-----------------|-------------||
|---------------------|-----------------|-------------||
|------7-6------------|-----7-6---------|-------------||
|----7-----7-6--7---6-|---7-----7-6-7-6-|-------------||
|-5-------------------|-5---------------|-------------||
|---------------------|-----------------|-------------||
|
|                                         PM|
| H.           +Q       W                 E E Q  H
|---------------------|-----------------|-------------||
|---------------------|-----------------|-------------||
|---------------------|-----------------|-------------||
|---------------------|-----------------|-------------||
|-8------------(8)\---|-4---------------|-------------||
|-8------------(8)\---|-4---------------|-0-1---------||


   1st Verse
    Gtrs I, II
    PM--|     PM|       PM|     PM|       PM|     PM|       PM----------|
    E E E E E E E E   E E E E E E E E   E E E E E E E E   E E E E E E E E   4x
||------------------|-----------------|-----------------|-------------------||
||o-----------------|-----------------|-----------------|------------------o||
||------------------|-----------------|-----------------|-------------------||
||------------------|-6---------------|-6---------------|-6-----------------||
||o-------7-8-----7-|-------7-8-----7-|-------7-8-----7-|------------------o||
||--0-0-0-----0-0---|---0-0-----0-0---|---0-0-----0-0---|---0-0-0-0-0-0-0---||


 Chorus
      Bb5
  PM|   PM|   PM    PM|   PM|   PM
  E E E E E E E E   E E E E E E E E
|-----------------|-----------------|
|-----------------|-----------------|
|-----------------|-----------------|
|-----3-----3---3-|-----3-----3---3-|
|-----1-----1---1-|-----1-----1---1-|
|-0-0---0-0---0---|-0-0---0-0---0---|


                    N.C.
  PM|   PM|   PM    PM----------------------------|
  E E E E E E E E   S S S S S S S S S S S S S S S S
|-----------------|----------------------------------|
|-----------------|----------------------------------|
|-----------------|----------------------------------|
|-----3-----3---3-|----------------------------------|
|-----1-----1---1-|----------------------------------|
|-0-0---0-0---0---|-0-0-0-0-0-0-0-0-0-0-0-0-0-0-0-0--|


      Bb5                                                   F5
  PM|   PM|   PM    PM|   PM|   PM    PM|   PM|   PM    PM------------|
  E E E E E E E E   E E E E E E E E   E E E E E E E E   E E E E E E E E
|-----------------|-----------------|-----------------|-----------------||
|-----------------|-----------------|-----------------|-----------------||
|-----------------|-----------------|-----------------|-----------------||
|-----3-----3---3-|-----3-----3---3-|-----3-----3---3-|-----------------||
|-----1-----1---1-|-----1-----1---1-|-----1-----1---1-|-----3---3---3-3-||
|-0-0---0-0---0---|-0-0---0-0---0---|-0-0---0-0---0---|-0-0-1-0-1-0-1-1-||


   2nd Verse
    N.C.
    PM--|     PM|       PM|     PM|       PM|     PM|       PM----------|
    E E E E E E E E   E E E E E E E E   E E E E E E E E   E E E E E E E E
||------------------|-----------------|-----------------|-------------------||
||o-----------------|-----------------|-----------------|------------------o||
||------------------|-----------------|-----------------|-------------------||
||------------------|-6---------------|-6---------------|-6-----------------||
||o-------7-8-----7-|-------7-8-----7-|-------7-8-----7-|------------------o||
||--0-0-0-----0-0---|---0-0-----0-0---|---0-0-----0-0---|---0-0-0-0-0-0-0---||


 Chorus
      Bb5
  PM|   PM|   PM    PM|   PM|   PM
  E E E E E E E E   E E E E E E E E
|-----------------|-----------------|
|-----------------|-----------------|
|-----------------|-----------------|
|-----3-----3---3-|-----3-----3---3-|
|-----1-----1---1-|-----1-----1---1-|
|-0-0---0-0---0---|-0-0---0-0---0---|


                    N.C.
  PM|   PM|   PM    PM----------------------------|
  E E E E E E E E   S S S S S S S S S S S S S S S S
|-----------------|----------------------------------|
|-----------------|----------------------------------|
|-----------------|----------------------------------|
|-----3-----3---3-|----------------------------------|
|-----1-----1---1-|----------------------------------|
|-0-0---0-0---0---|-0-0-0-0-0-0-0-0-0-0-0-0-0-0-0-0--|


      Bb5                                               N.C.
                                                       2/4
  PM|   PM|   PM    PM|   PM|   PM    PM|   PM|   PM    PM----|
  E E E E E E E E   E E E E E E E E   E E E E E E E E   E E E E
|-----------------|-----------------|-----------------|----------||
|-----------------|-----------------|-----------------|----------||
|-----------------|-----------------|-----------------|----------||
|-----3-----3---3-|-----3-----3---3-|-----3-----3---3-|----------||
|-----1-----1---1-|-----1-----1---1-|-----1-----1---1-|----------||
|-0-0---0-0---0---|-0-0---0-0---0---|-0-0---0-0---0---|-0-0-0-0--||


  Faster Q=252
 4/4
  E S S S S E E S S E E   E S S S S E E E E E   E S S S S E E S S E E
|-----------------------|---------------------|-----------------------|
|-----------------------|---------------------|-----------------------|
|-----------------------|---------------------|-----------------------|
|-----------------------|---------------------|-----------------------|
|-------------2-------2-|-------------2---3---|-2-----------2-------2-|
|-1-1-1-1-1-1---1-1-1---|-1-1-1-1-1-1---1---1-|---1-1-1-1-1---1-1-1---|


                                    Bridge
                        F5           N.C.
                       3/4          4/4
  E S S S S E E E E E   E E Q  Q     E S S S S E E S S E E
|---------------------|-----------||-----------------------|
|---------------------|-----------||-----------------------|
|---------------------|-----------||-----------------------|
|---------------------|-----------||-----------------------|
|-------------2---3---|-3---------||-------------2-------2-|
|-1-1-1-1-1-1---1---1-|-1---------||-1-1-1-1-1-1---1-1-1---|


  E S S S S E E E E E     E S S S S E E S S E E   E S S S S E E E E E  3x
|---------------------||------------------------|----------------------||
|---------------------||o-----------------------|---------------------o||
|---------------------||------------------------|----------------------||
|---------------------||------------------------|----------------------||
|-------------2---3---||o-2-----------2-------2-|-------------2---3---o||
|-1-1-1-1-1-1---1---1-||----1-1-1-1-1---1-1-1---|-1-1-1-1-1-1---1---1--||


                                              C5     N.C.
    PM------------|   PM--|     PM  PM--|   PM
    S S S S S S S S E S S E E   E E S S E E E Q      E S S S S E E S S E E
||----------------------------|-------------------||------------------------|
||o---------------------------|------------------o||------------------------|
||----------------------------|-------------------||------------------------|
||----------------------------|---------------5---||------------------------|
||o-----------------5-------3-|---2-------2---3--o||-------------2-------2--|
||--4-4-4-4-4-4-4-4---4-4-4---|-4---4-4-4---4-----||-1-1-1-1-1-1---1-1-1----|


  E S S S S E E E E E     E S S S S E E S S E E   E S S S S E E E E E  3x
|---------------------||------------------------|----------------------||
|---------------------||o-----------------------|---------------------o||
|---------------------||------------------------|----------------------||
|---------------------||------------------------|----------------------||
|-------------2---3---||o-2-----------2-------2-|-------------2---3---o||
|-1-1-1-1-1-1---1---1-||----1-1-1-1-1---1-1-1---|-1-1-1-1-1-1---1---1--||


      PM|   PM  PM--------------------------------------------------|
    E E E E E E E E  4x     E E E E E E E E  4x     E S S E E E E E E  4x
||-------------------||-||-------------------||-||---------------------||
||o-----------------o||-||o-----------------o||-||o-------------------o||
||-------------------||-||-------------------||-||---------------------||
||-------------------||-||----------6--------||-||---------------------||
||o-7-----6---7-----o||-||o-7-6-7-8---8-7-6-o||-||o-------------------o||
||----0-0---0---0-0--||-||-------------------||-||--0-0-0-0-0-0-0-0-0--||


    E5              F5  D5
    W          H     Q  Q   3x
||-----------|--------------||
||o----------|-------------o||
||-----------|--------------||
||--9--------|-9----10--7---||
||o-7--------|-7-----8--5--o||
||--0--------|--------------||


  N.C.                                              F5
  S S S S S S S S S S S S S S S S   S S S S S S S S  Q   Q
|---------------------------------|---------------------------||
|---------------------------------|---------------------------||
|---------------------------------|---------------------------||
|---------------------------------|-----------------10--10----||
|-7-7-7-7-7-7-7-7-7-7-7-7-7-7-7-7-|-7-7-7-7-7-7-7-7--8---8----||
|---------------------------------|---------------------------||


 Guitar Solo
  N.C.
  Gtr III
   |----3----|                |----3----|
   E    E    E    S  S  S  S  E    E    E    S  S  S  S
|-13---12---10---------------13---12---10---------------|
|----------------13-12-10-------------------13-12-10----|
|-------------------------13-------------------------13-|
|-------------------------------------------------------|
|-------------------------------------------------------|
|-------------------------------------------------------|
|
| Gtrs I, II
|  PM----------------------------------------------------
|  S S    S    S  S  S  S  S  S S    S    S  S  S  S  S
|-------------------------------------------------------|
|-------------------------------------------------------|
|-------------------------------------------------------|
|-------------------------------------------------------|
|-------------------------------------------------------|
|--0-0----0----0--0--0--0--0--0-0----0----0--0--0--0--0-|


                                                                                  ~
                        |---3----|   |-3--|                       |---3---|
   S S  S S  S  S  S S  E   E    E   E    Q       S S E   S S E   E   E   E   S S E
|-----------------------------------------------|-------------------------------------|
|---------9-10-12-10-9--------------------------|-------------------------------------|
|-10-9-10--------------10---9--------9----------|-------------------------------------|
|-------------------------------12-------12-----|-7-7-6---7-7-----7---6-------6-------|
|-----------------------------------------------|-------------8-----------8-----8-8---|
|-----------------------------------------------|-------------------------------------|
|
|-----------------------------------------------------------------------------------|
|  S S  S S  S  S  S S  S S   S    S S S    S S   S S S S S S S S S S   S   S S S S S
|-----------------------------------------------|-------------------------------------|
|-----------------------------------------------|-------------------------------------|
|-----------------------------------------------|-------------------------------------|
|-----------------------------------------------|-------------------------------------|
|-----------------------------------------------|-------------------------------------|
|--0-0--0-0--0--0--0-0--0-0---0----0-0-0----0-0-|-0-0-0-0-0-0-0-0-0-0---0---0-0-0-0-0-|


   ~~~
                                          |---3---|   |---3---|   |---3---|   |---3---|
  +H                +Q         Q          E   E   E   E   E   E   E   E   E   E   E   E
|---------------------------------------|-------------------------------------------------|
|---------------------------------------|-------------------------------------------------|
|---------------------------------------|-------------5h==7h==9---------------5h==7h==9---|
|---------------------------------------|-5h==7h==9---------------5h==7h==9---------------|
|-(8)---------------(8)s======15\-------|-------------------------------------------------|
|---------------------------------------|-------------------------------------------------|
|
|  PM---------------------------------|
|  S  S S S S S S S  S  S S S  S  S S S   S S   S   S S S   S   S S S   S   S S S   S   S
|---------------------------------------|-------------------------------------------------|
|---------------------------------------|-------------------------------------------------|
|---------------------------------------|-------------------------------------------------|
|---------------------------------------|-------------------------------------------------|
|---------------------------------------|-------------------------------------------------|
|--0--0-0-0-0-0-0-0--0--0-0-0--0--0-0-0-|-2-2---2---2-2-2---2---2-2-2---2---2-2-2---2---2-|

[ Tab from: http://www.guitartabs.cc/tabs/s/sepultura/stronger_than_hate_tab_ver_2.html ]
  |---3---|   |---3---|
  E   E   E   E   E   E   S S S S S S E
|-------------------------------------------|
|-------------------------------------7-----|
|-------------5h==7h==9---------5h7h9-------|
|-5h==7h==9---------------5h7h9-------------|
|-------------------------------------------|
|-------------------------------------------|
|
| S S   S   S S S   S   S S S S S S S S S
|-------------------------------------------|
|-------------------------------------------|
|-------------------------------------------|
|-------------------------------------------|
|-------------------------------------------|
|-2-2---2---2-2-2---2---2-2-2-2-2-2-2-2-2---|


  |---3----|
  E   E    E    E    S  S  +S   S  E    S  E    S
|-----------------------------------------10------|
|--------------10---12-10-(10)----10---12------12-|
|-7h==9h==11-------------------11-----------------|
|-------------------------------------------------|
|-------------------------------------------------|
|-------------------------------------------------|
|
| S S   S    S  S S  S  S   S   S  S S  S  S S  S
|-------------------------------------------------|
|-------------------------------------------------|
|-------------------------------------------------|
|-------------------------------------------------|
|-------------------------------------------------|
|-2-2---2----2--2-2--2--2---2---2--2-2--2--2-2--2-|


                                            F#5      G5 F#5         G5
                                                          |------3------|
   E    S  S E   E   +E     E    Q           H            Q      Q      Q
|-----------------------------------------|----------------------------------|
|-10--------------------------------------|-------------[10]---[10]---[10]---|
|------12-11-9---7---(7)s==(2)s==7/-------|-[9]b10---------------------------|
|-----------------------------------------|----------------------------------|
|-----------------------------------------|----------------------------------|
|-----------------------------------------|----------------------------------|
|
|                                            PM----|      PM-|
|  S S  S  S S S S S  S  S  S  S S  S S S    E     E Q    E  E      Q
|-----------------------------------------|----------------------------------|
|-----------------------------------------|----------------------------------|
|-----------------------------------------|----------------------------------|
|-----------------------------------------|----------------------------------|
|-----------------------------------------|--4-----4-5----4--4------5--------|
|--2-2--2--2-2-2-2-2--2--2--2--2-2--2-2-2-|--2-----2-3----2--2------3--------|


  F#5             G5    N.C.
             \2          \1/    \1/    \1/    \1/               \2/
   E Q.     +Q.     E    E      E      E      E      +Q         Q
|---------------------|---------------------------------------------------|
|-10------------------|-13p====12p====10h====12-----(12)-------10---------|
|----9------(9)-------|---------------------------------------------------|
|---------------------|---------------------------------------------------|
|---------------------|---------------------------------------------------|
|---------------------|---------------------------------------------------|
|
|  PM|    PM    PM|      PM------------------------------------------------
|  E E  E E  E  E E E    S   S  S   S  S   S  S   S   S  S S S  S   S S S
|---------------------|---------------------------------------------------|
|---------------------|---------------------------------------------------|
|---------------------|---------------------------------------------------|
|---------------------|---------------------------------------------------|
|--4-4----4-----4-5---|---------------------------------------------------|
|--2-2----2-----2-3---|--0---0--0---0--0---0--0---0---0--0-0-0--0---0-0-0-|


   \1/    \1/   \1/                  \2
   E      E     Q          Q        +Q
|-----------------------------------------------|
|-12p====10p====9-------------------------------|
|-------------------------10-------(10)---------|
|-----------------------------------------------|
|-----------------------------------------------|
|-----------------------------------------------|
|
|-------------------------------------------|
|  S   S  S   S S   S S S  S S S S   S  S S S
|-----------------------------------------------|
|-----------------------------------------------|
|-----------------------------------------------|
|-----------------------------------------------|
|-----------------------------------------------|
|--0---0--0---0-0---0-0-0--0-0-0-0---0--0-0-0---|


  \0.5/           \0.5/             \0.5/
  Q.              E       +Q        Q
|-----------------------------------------------|
|-----------------------------------------------|
|-9---------------8-------(8)-------7-----------|
|-----------------------------------------------|
|-----------------------------------------------|
|-----------------------------------------------|
|
| PM---------------------------------------------
| S     S S S S S S     S  S  S S S S     S S S
|-----------------------------------------------|
|-----------------------------------------------|
|-----------------------------------------------|
|-----------------------------------------------|
|-----------------------------------------------|
|-0-----0-0-0-0-0-0-----0--0--0-0-0-0-----0-0-0-|


                                             Half time Q=126
                                             E5
                                             Gtr IV
  \0.5/                  \3
                                             PM----------------------------|
  Q           +Q        +H                   S S S S S S S S S S S S S S S S
|-----------------------------------------||---------------------------------|
|-----------------------------------------||---------------------------------|
|-6-----------(6)-------(6)---------------||---------------------------------|
|-----------------------------------------||-7-6---6-----6-7-9-7-6-------6---|
|-----------------------------------------||-----8---7-8-----------8-7-8---8-|
|-----------------------------------------||---------------------------------|
|
|---------------------------------------|
| S     S S S  S  S S S  S  S S S S S S S    W
|-----------------------------------------||---------------------------------|
|-----------------------------------------||---------------------------------|
|-----------------------------------------||---------------------------------|
|-----------------------------------------||---------------------------------|
|-----------------------------------------||-2-------------------------------|
|-0-----0-0-0--0--0-0-0--0--0-0-0-0-0-0-0-||-0-------------------------------|


  PM---------------------------------
  S   S S S S S S S S S S S S S S S
|-----------------------------------|
|-----------------------------------|
|-----------------------------------|
|-7---6---6-----6-7-9-7-6-------6---|
|-------8---7-8-----------8-7-8---8-|
|-----------------------------------|
|
| H..                           E
|-----------------------------------|
|-----------------------------------|
|-----------------------------------|
|-----------------------------------|
|-2-----------------------------2---|
|-0-----------------------------0---|


 -----------------------------------------------------------------|
  S S S S S S S S S S S S S S S S   S S S S S S S S S S S S S S S S
|---------------------------------|---------------------------------|
|---------------------------------|---------------------------------|
|---------------------------------|---------------------------------|
|-7-6---6-----6-7-9-7-6-------6---|-7-6---6-----6-7-9-7-6-------6---|
|-----8---7-8-----------8-7-8---8-|-----8---7-8-----------8-7-8---8-|
|---------------------------------|---------------------------------|
|
| W                                 W
|---------------------------------|---------------------------------|
|---------------------------------|---------------------------------|
|---------------------------------|---------------------------------|
|---------------------------------|---------------------------------|
|-2-------------------------------|-2-------------------------------|
|-0-------------------------------|-0-------------------------------|


  F#5
  S S S S S S S S S S S S S S S S
|---------------------------------|
|---------------------------------|
|-7-6---6-----6-7-9-6-7-9-7-6-----|
|-----9---7-9-----------------9-7-|
|---------------------------------|
|---------------------------------|
|
| W
|---------------------------------|
|---------------------------------|
|---------------------------------|
|---------------------------------|
|-4-------------------------------|
|-2-------------------------------|


                                G5    E5
                                      PM----------------------------|
  S   S S S S S S S S S S S S S S S   S S S S S S S S S S S S S S S S
|-----------------------------------|---------------------------------|
|-----------------------------------|---------------------------------|
|-7---6---6-----6-7-9-7-6-------6---|---------------------------------|
|-------9---7-9-----------9-7-9---9-|-7-6---6-----6-7-9-7-6-------6---|
|-----------------------------------|-----8---7-8-----------8-7-8---8-|
|-----------------------------------|---------------------------------|
|
| H..                           E     W
|-----------------------------------|---------------------------------|
|-----------------------------------|---------------------------------|
|-----------------------------------|---------------------------------|
|-----------------------------------|---------------------------------|
|-4-----------------------------5---|-2-------------------------------|
|-2-----------------------------3---|-0-------------------------------|


  Gtr V
  W
|---------------------------------||
|---------------------------------||
|---------------------------------||
|---------------------------------||
|---------------------------------||
|---------------------------------||
|
| Gtr IV
| PM--------------------------------
| S S S S S S S S S S S S S S S S
|---------------------------------||
|---------------------------------||
|---------------------------------||
|-7-6---6-----6-7-9-7-6-------6---||
|-----8---7-8-----------8-7-8---8-||
|---------------------------------||
|
| Gtrs I, II
| W
|---------------------------------||
|---------------------------------||
|---------------------------------||
|---------------------------------||
|-2-------------------------------||
|-0-------------------------------||


  PM--------------------------------------------------------------|
  S S S S S S S S S S S S S S S S   S S S S S S S S S S S S S S S S
|---------------------------------|---------------------------------|
|---------------------------------|---------------------------------|
|-5-4---4-----4-5-7-5-4-----------|-5-4---4-----4-5-7-5-4-----------|
|-----7---6-7-----------7-6-7-6-7-|-----7---6-7-----------7-6-7-6-7-|
|---------------------------------|---------------------------------|
|---------------------------------|---------------------------------|
|
|-----------------------------------------------------------------|
| S S S S S S S S S S S S S S S S   S S S S S S S S S S S S S S S S
|---------------------------------|---------------------------------|
|---------------------------------|---------------------------------|
|---------------------------------|---------------------------------|
|-7-6---6-----6-7-9-7-6-----------|-7-6---6-----6-7-9-7-6-----------|
|-----8---7-8-----------8-7-8-7-8-|-----8---7-8-----------8-7-8-7-8-|
|---------------------------------|---------------------------------|
|
| W                                 W
|---------------------------------|---------------------------------|
|---------------------------------|---------------------------------|
|---------------------------------|---------------------------------|
|---------------------------------|---------------------------------|
|-2-------------------------------|-2-------------------------------|
|-0-------------------------------|-0-------------------------------|


                             Faster Q=192
  D5    Bb5   A5    F5       E5  Bb5           N.C.
  Gtr IV                     Gtr I
  PM---------------------------|   PM|   PM    PM------------------|
  |-3-| |-3-| |-3-| |-3-|
  E E E E E E E E E E E E    E E E E E E E E   E E S S E S S E S S E
|-------------------------||-----------------|-----------------------|
|-------------------------||-----------------|-----------------------|
|-------------------------||-----------------|-----------------------|
|-7-6---6-----------------||-----3-----3---3-|-----------------------|
|-----8---8-7-5-----------||-----1-----1---1-|-----2-2---1-1---2-2---|
|---------------7-5-7-5-4-||-0-0---0-0---0---|-0-0-----0-----0-----0-|
|
| Gtrs I, II                 Gtr II
| Q     Q     Q     Q        E E Q   H         W
|-------------------------||-----------------|-----------------------|
|-------------------------||-----------------|-----------------------|
|-------------------------||-----------------|-----------------------|
|-0-----3-----2-----------||-----------------|-----------------------|
|-0-----1-----0-----3-----||-2---------------|-----------------------|
|-------------------1-----||-0---------------|-----------------------|


      Bb5           N.C.                        Bb5
  PM|   PM|   PM    PM------------------------|   PM|   PM
  E E E E E E E E   E E S S E S S E S S E   E E E E E E E E   +W
|-----------------|-----------------------|-----------------|--------|
|-----------------|-----------------------|-----------------|--------|
|-----------------|-----------------------|-----------------|--------|
|-----3-----3---3-|-----------------------|-----3-----3---3-|-(3)----|
|-----1-----1---1-|-----2-2---1-1---2-2---|-----1-----1---1-|-(1)----|
|-0-0---0-0---0---|-0-0-----0-----0-----0-|-0-0---0-0---0---|--------|
|
| PM|   PM|   PM                            PM|   PM|   PM
| E E E E E E E E   W                       E E E E E E E E   +W
|-----------------|-----------------------|-----------------|--------|
|-----------------|-----------------------|-----------------|--------|
|-----------------|-----------------------|-----------------|--------|
|-----3-----3---3-|-----------------------|-----3-----3---3-|-(3)----|
|-----1-----1---1-|-----------------------|-----1-----1---1-|-(1)----|
|-0-0---0-0---0---|-----------------------|-0-0---0-0---0---|--------|


        Bb5           N.C.
    PM|   PM|   PM    PM-----------------------
    E E E E E E E E   E E S S E S S E S S E  4x
||------------------|------------------------||
||o-----------------|-----------------------o||
||------------------|------------------------||
||------3-----3---3-|------------------------||
||o-----1-----1---1-|-----2-2---1-1---2-2---o||
||--0-0---0-0---0---|-0-0-----0-----0-----0--||
|
|   PM|   PM|   PM    PM------------------|
|   E E E E E E E E   E E S S E S S E S S E  4x
||------------------|------------------------||
||o-----------------|-----------------------o||
||------------------|------------------------||
||------3-----3---3-|------------------------||
||o-----1-----1---1-|-----2-2---1-1---2-2---o||
||--0-0---0-0---0---|-0-0-----0-----0-----0--||


      Bb5
 -------|   PM|   PM     PM-------------|
      E E E E E E E E    E  E E E E E E E
|-||------------------|---------------------||
|-||o-----------------|--------------------o||
|-||------------------|---------------------||
|-||------3-----3---3-|---------------------||
|-||o-----1-----1---1-|--------------------o||
|-||--0-0---0-0---0---|--0--0-0-0-0-0-0-0---||
|
|     W                 +W
|-||------------------|---------------------||
|-||o-----------------|--------------------o||
|-||------------------|---------------------||
|-||--3---------------|-(3)-----------------||
|-||o-1---------------|-(1)----------------o||
|-||------------------|---------------------||


   Verse
    Bb5                       B5
    Gtrs I, II
      PM|   PM|   PM--|   PM|
    E E E E E E E E   E E E E E E E E  4x
||------------------|------------------||
||o-----------------|-----------------o||
||------------------|------------------||
||--3-----3-----3---|---3-----4-4-4-4--||
||o-1-1-1-1-1-1-1-1-|-1-1-1-1-2-2-2-2-o||
||------------------|------------------||


      E5                        F5
        PM|   PM|   PM--|   PM|
      E E E E E E E E   E E E E E E E E  4x
|-||------------------|------------------||
|-||o-----------------|-----------------o||
|-||------------------|------------------||
|-||------------------|------------------||
|-||o-2-----2-----2---|---2-----3-3-3-3-o||
|-||--0-0-0-0-0-0-0-0-|-0-0-0-0-1-1-1-1--||


    N.C.
    Gtr I
    E E E E E E E E   E E E E E E E E   E E E E E E E E
||------------------|-----------------|-----------------|
||o-----------------|-----------------|-----------------|
||------------------|-----------------|-----------------|
||------------------|-----------------|-----------------|
||o---2-3---2-3---2-|---2-3---2-3---2-|---5-6---5-6---5-|
||--0-----0-----0---|-1-----1-----1---|-3-----3-----3---|
|
|   Gtr II
|   E E E E E E E E   E E E E E E E E   E E E E E E E E
||------------------|-----------------|-----------------|
||o-----------------|-----------------|-----------------|
||----4-5---4-5---4-|---4-5---4-5---4-|---7-8---7-8---7-|
||--2-----2-----2---|-3-----3-----3---|-5-----5-----5---|
||o-----------------|-----------------|-----------------|
||------------------|-----------------|-----------------|


 1.                   2.
  E E E E E E E E     E E E E S S S S Q
|------------------||-----------------------||
|-----------------o||-----------------------||
|------------------||-----------------------||
|------------------||-----------------------||
|---5-6---5-6---5-o||---5-6---5-6-5-3-3tr5--||
|-3-----3-----3----||-3-----3---------------||
|
| E E E E E E E E     E E E E S S S S Q
|------------------||-----------------------||
|-----------------o||-----------------------||
|---7-8---7-8---7--||---7-8---7-8-7-5-5tr7--||
|-5-----5-----5----||-5-----5---------------||
|-----------------o||-----------------------||
|------------------||-----------------------||


        Bb5                                               N.C.
    Gtrs I, II
    PM|   PM|   PM    PM|   PM|   PM    PM|   PM|   PM    PM------------|
    E E E E E E E E   E E E E E E E E   E E E E E E E E   E E E E E E E E   4x
||------------------|-----------------|-----------------|-------------------||
||o-----------------|-----------------|-----------------|------------------o||
||------------------|-----------------|-----------------|-------------------||
||------3-----3---3-|-----3-----3---3-|-----3-----3---3-|-------------------||
||o-----1-----1---1-|-----1-----1---1-|-----1-----1---1-|------------------o||
||--0-0---0-0---0---|-0-0---0-0---0---|-0-0---0-0---0---|-0-0-0-0-0-0-0-0---||


  PM----------------------|            PM----|   PM|     PM  PM----------|
  E E E E E E E E   E E E E Q  Q       E E E E E E E E   E E E E S S E E E  4x
|-----------------|----------------||------------------|--------------------||
|-----------------|----------------||o-----------------|-------------------o||
|-----------------|----------------||------------------|--------------------||
|-----------------|----------------||------------------|--------------------||
|-----------------|----------------||o---------3-----3-|---4---------------o||
|-2-2-2-2-2-2-2-2-|-2-2-2-2-2S=x\--||--2-2-2-2---2-2---|-2---2-2-3-3-0-1-1--||


  Faster Q=252
  E S S S S E E S S E E   E S S S S E E E E E   E S S S S E E S S E E
|-----------------------|---------------------|------------------------|
|-----------------------|---------------------|------------------------|
|-----------------------|---------------------|------------------------|
|-----------------------|---------------------|------------------------|
|-------------2-------2-|-------------2---3---|-2-----------2-------2--|
|-1-1-1-1-1-1---1-1-1---|-1-1-1-1-1-1---1---1-|---1-1-1-1-1---1-1-1----|


  Gtrs I, II
  E  S S S S E E E E E    E  S S S S E E S S E E
|----------------------|-------------------------|
|----------------------|-------------------------|
|----------------------|-------------------------|
|----------------------|-------------------------|
|--------------2---3---|--2------------2-------2-|
|-1--1-1-1-1-1---1---1-|-----1-1-1-1-1---1-1-1---|
|
| Gtr III
| \7
| W                      +W
|----------------------|-------------------------|
|----------------------|-------------------------|
|----------------------|-------------------------|
|----------------------|-------------------------|
|----------------------|-------------------------|
|-0--------------------|-(0)---------------------|


   E  S S S S E E E E E    E  S S S S E E S S E E
|-----------------------|---------------------------|
|-----------------------|---------------------------|
|-----------------------|---------------------------|
|-----------------------|---------------------------|
|---------------2---3---|--2------------2-------2---|
|--1--1-1-1-1-1---1---1-|-----1-1-1-1-1---1-1-1-----|
|
| +W                      +W
|-----------------------|---------------------------|
|-----------------------|---------------------------|
|-----------------------|---------------------------|
|-----------------------|---------------------------|
|-----------------------|---------------------------|
|-(0)-------------------|-(0)-----------------------|


                        Bridge
  E S S S S E E E E E    E S S S S E E S S E E   E S S S S E E E E E
|---------------------||-----------------------|---------------------|
|---------------------||-----------------------|---------------------|
|---------------------||-----------------------|---------------------|
|---------------------||-----------------------|---------------------|
|-------------2---3---||-------------2-------2-|-------------2---3---|
|-1-1-1-1-1-1---1---1-||-1-1-1-1-1-1---1-1-1---|-1-1-1-1-1-1---1---1-|


    E S S S S E E S S E E   E S S S S E E E E E  3x
||------------------------|----------------------||
||o-----------------------|---------------------o||
||------------------------|----------------------||
||------------------------|----------------------||
||o-2-----------2-------2-|-------------2---3---o||
||----1-1-1-1-1---1-1-1---|-1-1-1-1-1-1---1---1--||


      N.C.
      PM------------|   PM--|
      S S S S S S S S E S S E E
|-||-----------------------------|
|-||o----------------------------|
|-||-----------------------------|
|-||-----------------------------|
|-||o-----------------5-------3--|
|-||--4-4-4-4-4-4-4-4---4-4-4----|


                C5     N.C.
  PM  PM--|   PM
  E E S S E E E Q   4x E S S S S E E S S E E
|-------------------||-----------------------|
|------------------o||-----------------------|
|-------------------||-----------------------|
|---------------5---||-----------------------|
|---2-------2---3--o||-------------2-------2-|
|-4---4-4-4---4-----||-1-1-1-1-1-1---1-1-1---|


  E S S S S E E E E E     E S S S S E E S S E E
|---------------------||------------------------|
|---------------------||o-----------------------|
|---------------------||------------------------|
|---------------------||------------------------|
|-------------2---3---||o-2-----------2-------2-|
|-1-1-1-1-1-1---1---1-||----1-1-1-1-1---1-1-1---|


                              N.C.                                      C5
                              PM------------|   PM--|     PM  PM--|   PM
  E S S S S E E E E E  3x     S S S S S S S S E S S E E   E E S S E E E Q   4x
|----------------------||-||----------------------------|-------------------||
|---------------------o||-||o---------------------------|------------------o||
|----------------------||-||----------------------------|-------------------||
|----------------------||-||----------------------------|---------------5---||
|-------------2---3---o||-||o-----------------5-------3-|---2-------2---3--o||
|-1-1-1-1-1-1---1---1--||-||--4-4-4-4-4-4-4-4---4-4-4---|-4---4-4-4---4-----||


    N.C.                                      N.C.B5 N.C.B5   N.C.B5 N.C.B5C5
      PM--|   PM|     PM----|   PM  PM----------|    PM|      PM|    PM|
    E E E E E E E E   E E E E E E E E         E E Q  E E Q    E E Q  E E E E  4x
||------------------|------------------||-||----------------|-----------------||
||o-----------------|-----------------o||-||o---------------|----------------o||
||------------------|------------------||-||----------------|-----------------||
||------------------|------------------||-||------4------4--|-----4------4s5--||
||o-2-------2-----2-|---------2---3---o||-||o-----2------2--|-----2------2s3-o||
||----1-1-1---1-1---|-1-1-1-1---1---1--||-||--1-1----1-1----|-1-1----1-1------||


                                                   1.,2.,3.
  F5                                N.C.B5 N.C.B5   N.C.B5 N.C.B5C5
  PM|    PM|      PM|    PM|        PM|    PM|      PM|    PM|
  E E Q  E E Q    E E Q  E E Q      E E Q  E E Q    E E Q  E E E E
|---------------|---------------||----------------|-----------------||
|---------------|---------------||o---------------|----------------o||
|---------------|---------------||----------------|-----------------||
|---------------|---------------||------4------4--|-----4------4s5--||
|-3-3----3-3----|-3-3----3-3----||o-----2------2--|-----2------2s3-o||
|-1-1----1-1----|-1-1----1-1----||--1-1----1-1----|-1-1----1-1------||


                   Outro
  4.                Q=140
  N.C.B5 N.C.B5C5   Gadd2
                    Gtr VI
  PM|    PM|        T   T   T   T   T   T   T   T
  E E Q  E E E E    S S S S S S S S S S S S S S S S
|----------------||---------------------------------|
|----------------||---------------------------------|
|----------------||---------------------------------|
|-----4------4s5-||---------------------------------|
|-----2------2s3-||-5p2-----5p2-----5p2-----5p2-----|
|-1-1----1-1-----||-----5p3-----5p3-----5p3-----5p3-|


  Bm7
  T   T   T   T   T   T   T   T
  S S S S S S S S S S S S S S S S
|-----------------------------------|
|-----------------------------------|
|-----------------------------------|
|-----------------------------------|
|-5p2-----5p2-----5p2-----5p2-------|
|-----5p2-----5p2-----5p2-----5p2---|


  C                                 Bmadd2
  T   T   T   T   T   T   T   T     T   T   T   T   T   T   T   T
  S S S S S S S S S S S S S S S S   S S S S S S S S S S S S S S S S
|---------------------------------|---------------------------------|
|---------------------------------|---------------------------------|
|---------------------------------|---------------------------------|
|---------------------------------|---------------------------------|
|-7p3-----7p3-----7p3-----7p3-----|-9p5-----9p5-----9p5-----9p5-----|
|-----8p3-----8p3-----8p3-----8p3-|-----9p7-----9p7-----9p7-----9p7-|


  Cadd2
   T    T    T    T    T    T    T    T
   S S  S S  S S  S S  S S  S S  S S  S S
|-----------------------------------------|
|-----------------------------------------|
|-----------------------------------------|
|-----------------------------------------|
|-10p7------10p7------10p7------10p7------|
|------10p8------10p8------10p8------10p8-|


  H.=H
  Em7
   T    T    T    T    T    T    T    T
   S S  S S  S S  S S  S S  S S  S S  S S
|-----------------------------------------|
|-----------------------------------------|
|-----------------------------------------|
|-----------------------------------------|
|-10p7------10p7------10p7------10p7------|
|------10p7------10p7------10p7------10p7-|


  Bm6
   T    T    T    T    T    T    T    T      T
   S S  S S  S S  S S  S S  S S  S S  S S    S  S  S S +H.
|-----------------------------------------|-------------------*|
|-----------------------------------------|-------------------*|
|-----------------------------------------|-------------------*|
|-----------------------------------------|-------------------*|
|-10p9------10p9------10p9------10p9------|-10s12s10p9-(9)----*|
|------10p7------10p7------10p7------10p7-|-10s12s10p7-(7)----*|


Duration Legend
---------------
W - whole; H - half; Q - quarter; E - 8th; S - 16th; T - 32nd; X - 64th; a - acciaccatura
+ - note tied to previous; . - note dotted; .. - note double dotted
Uncapitalized letters represent notes that are staccato (1/2 duration)
Irregular groupings are notated above the duration line
Duration letters will always appear directly above the note/fret number it represents the
duration for.  Duration letters with no fret number below them represent rests.  Multi-
bar rests are notated in the form Wxn, where n is the number of bars to rest for.  Low
melody durations appear below the staff

Tablature Legend
----------------
 h   - hammer-on
 p   - pull-off
 b   - bend
 pb  - pre-bend
 r   - bend release (if no number after the r, then release immediately)
 /\  - slide into or out of (from/to "nowhere")
 s   - legato slide
 S   - shift slide
  - natural harmonic
[n]  - artificial harmonic
n(n) - tapped harmonic
 ~   - vibrato
 tr  - trill
 T   - tap
 TP  - trem. picking
 PM  - palm muting
\n/  - tremolo bar dip; n = amount to dip
 \n  - tremolo bar down
 n/  - tremolo bar up
/n\  - tremolo bar inverted dip
 =   - hold bend; also acts as connecting device for hammers/pulls
 <>  - volume swell (louder/softer)
 x   - on rhythm slash represents muted slash
 o   - on rhythm slash represents single note slash

Misc Legend
-----------
 |  - bar
||  - double bar
||o - repeat start
o|| - repeat end
*|  - double bar (ending)
 :  - bar (freetime)
 $  - Segno
 &  - Coda
Tempo markers -  = BPM(8/16=s8/s16), where s8 = swing 8ths, s16 = swing 16ths
Comments