Sepultura - Spit Chords & Tabs

 

Spit Chords & Tabs

Sepultura Chords & Tabs

Version: 1 Type: Tab 0 ratings
1 star 2 stars 3 stars 4 stars 5 stars
comments

Spit Tab

   
-------------------------------------------------------------------------------
			     Sepultura - Spit
-------------------------------------------------------------------------------
Tuning: A# F A# D# G C

C-|---------------------------------------------------------------------------|
G-|---------------------------------------------------------------------------|
D#|---------------------------------------------------------------------------|
A#|---------------------------------------------------------------------------|
F-|1-0-0-1-0-0-1-0-0-1-0-7-7-7-6-0--------------------------------------------|
A#|1-0-0-1-0-0-1-0-0-1-0-7-7-7-6-0--------------------------------------------|
  
C-|---------------------------------------------------------------------------|
G-|---------------------------------------------------------------------------|
D#|---------------------------------------------------------------------------|
A#|---------------------------------------------------------------------------|
F-|1-0-0-1-0-0-1-0-0-1-0-0-1-0-1-0--------------------------------------------|
A#|1-0-0-1-0-0-1-0-0-1-0-0-1-0-1-0--------------------------------------------|
     * *   * *   * *   * *   *   *
C-|---------------------------------------------------------------------------|
G-|---------------------------------------------------------------------------|
D#|---------------------------------------------------------------------------|
A#|---------------------------------------------------------------------------|
F-|1--------------------------------------------------------------------------|
A#|1--------------------------------------------------------------------------|
[ Tab from: http://www.guitartabs.cc/tabs/s/sepultura/spit_tab.html ]
C-|---------------------------------------------------------------------------|
G-|---------------------------------------------------------------------------|
D#|---------------------------------------------------------------------------|
A#|---------------------------------------------------------------------------|
F-|3-3-3-0---------2-2-2-0---------3-3-3-6-----6---6---6---6---6--------------|
A#|3-3-3-0---------2-2-2-0---------3-3-3-6-----6---6---6---6---6--------------|
   * * *
C-|---------------------------------------------------------------------------|
G-|---------------------------------------------------------------------------|
D#|---------------------------------------------------------------------------|
A#|4-5---5---4-5---5---9-9-9-9------------------------------------------------|
F-|4-5---5---4-5---5---7-7-7-7------------------------------------------------|
A#|---------------------------------------------------------------------------|

C-|---------------------------------------------------------------------------|
G-|---------------------------------------------------------------------------|
D#|---------------------------------------------------------------------------|
A#|---------------------------------------------------------------------------|
F-|0-0---0-0---0-0---0-0---2-2-2-2--------------------------------------------|
A#|0-0---0-0---0-0---0-0---2-2-2-2--------------------------------------------|
   * *   * *   * *   * *   
C-|---------------------------------------------------------------------------|
G-|---------------------------------------------------------------------------|
D#|---------------------------------------------------------------------------|
A#|7-----------7--------------------------------------------------------------|
F-|5-----------5-----------2-2-2-2--------------------------------------------|
A#|--0---0---0---0---0---0-2-2-2-2--------------------------------------------|

C-|---------------------------------------------------------------------------|
G-|---------------------------------------------------------------------------|
D#|---------------------------------------------------------------------------|
A#|---------------------------------------------------------------------------|
F-|0--------------------------------------------------------------------------|
A#|0--------------------------------------------------------------------------|
   *

| *  palm mute
| ^  bend
| /  slide up
| \  slide down
| h  hammer-on
| p  pull-off
| ~  vibrato
| +  harmonic
| x  Mute note
==============================================================================
Comments