Sepultura - Slave New World Chords & Tabs

 

Slave New World Chords & Tabs

Sepultura Chords & Tabs

Version: 3 Type: Tab 0 ratings
1 star 2 stars 3 stars 4 stars 5 stars
comments

Slave New World Tab

Tune all gutars 1 full step down.
Listen to the song to get the timing and speed right.

Intro                            4x
|----------------------------------|
|----------------------------------|
|---------------------------------o|
|-2----------4----------5---------o|
|-2----------4----------5----------|
|-0----------2----------3----------|


Rhy fig 1                       6x
|---------------------------------|
|---------------------------------|
|---------------------------------|
|---------------------------------|
|-----------------------------6\5-|
|-0-0-0-0-0-0-0-0-0-0-0-0-0-0-6\5-|
pm. . . . . . . . . . . . . .

                                      2x
|-------------------|-------------------|
|-------------------|-------------------|
|-------------------|-------------------|
|-------------------|-------------------|
|-2-----3-----5-----|-2-----4-----6-----|
|-0-----1-----3-----|-0-----2-----4-----|


Verse 1
Play rhy fig 1 (4x)

Face the enemy 
Stare inside you 
Control your thoughts 
Destroy, destroy them all

 

|------------------------------------------------------|
|------------------------------------------------------|
|------------------------------------------------------|
|---------------------------------------------3--------|
|------2--3--5------2--3--5------2--3--5------3--------|
|-0000-0--1--3-0000-0--1--3-0000-0--1--3-0000-1--------|
pm....         ....         ....         ....


Rhy fig 2                                           2x
|-----------------------------------------------------|
|-----------------------------------------------------|
|-----------------------------------------------------|
|--------^------------^------------^------------^-----|
|-2h3-3-2/3-3~-2h3-3-2/3-3~-2h3-3-2/3-3~-2h3-3-2/3-3~-|
|-0h1-1--------0h1-1--------0h1-1--------0h1-1--------|
        sl            sl           sl           sl

[ Tab from: http://www.guitartabs.cc/tabs/s/sepultura/slave_new_world_tab_ver_3.html ]
You censor what we breathe
Predjudice with no belief
Sensless violence all around
Who is it that keeps us down?                       DOWN!                   
                                                        4x      
|---------------------------------------------------------|
|---------------------------------------------------------|
|---------------------------------------------------------|
|-------------------------2--------------(2)--------------|
|-2h3-3-2h3-3-2h3-3-2h3-3-2--------------(2)--------------|
|-0h1-1-0h1-1-0h1-1-0h1-1-0--------------(0)--------------|


                                                    2x
|-----------------------------------------------------|
|-----------------------------------------------------|
|-----------------------------------------------------|
|-----------------------------------------------------|
|-----2--3--6-----2--3--6-----2--3--6-----------------|
|-0-0-0--1--4-0-0-0--1--4-0-0-0--1--4-0-0-0-0-0-0-0-0-|
pm. .         . .         . .         . . . . . . . .


                         Once all free tribes
                         Chained down led lives
                         Blood boils inside me
                         We're not slaves we're free
                                                    4x                 
|-----------------------------------------------------|
|-----------------------------------------------------|
|-----------------------------------------------------|
|-8/9-9-8/9-9-8/9-9-8/9-8-------------(8)-------------|
|-6/7-7-6/7-7-6/7-7-6/7-6-------------(6)-------------|
|-----------------------------------------------------|


                                                           8x
|-------------------------------------------------------------|
|-------------------------------------------------------------|
|-------------------------------------------------------------|
|-------------------------------------------------------------|
|-------------------------------------------------------------|
|-0-0--0-0-1/----0-0--0-0-1/----0-0--0-0-1/----0-0--0-0-1/----|
pm.    .    sl   .    .    sl   .    .    sl   .    .    sl


Play rhy fig 1 8x

Face the enemy
Stare inside you 
Control your thoughts
Destroy, destroy them all


|------------|
|------------|
|------------|
|------------|
|-2--4--6----|
|-0--2--4----|       


I tabbed this song a few years back, but never wrote it down before. I noticed that there
were no tabs for this song on this site so what the hey, here it is without the solos but
I'll add them in later. I memorized the the whole song but I don't have my guitat with me
right now so if there are some parts that don't sound right, I'll come back and correct
them but this should be pretty accurate.
Comments